PrimaNota.ru - самый крупный в мире бесплатный архив песенных текстов, аккордов, табулатур и нот


Elvis Costello - Little Boxes - текст песни, таба, видео

Регистрация Запомнить меня
Войти через:  Facebook Google Twitter Vk Yandex Mail.ru

Elvis Costello - Little Boxes - текст песни, таба, видео

Печатать
Просмотров: 162
Elvis Costello - Little Boxes
(Original by Malvina Reynolds)

Here's a little simple tab for Elvis Costello's version of Malvina Reynold's song 
'Little Boxes', as recorded for the television show Weeds:

  Dm pattern:
e|-----1-----|-----1-----|
B|-----------|-----------|
G|-----2-----|-----2-----|
D|-0---------|-0---------|
A|---------0-|---------0-|
E|-----------|-----------|

  D pattern:
e|-----2-----|-----2-----|
B|-----------|-----------|
G|-----2-----|-----2-----|
D|-0---------|-0---------|
A|---------0-|---------0-|
E|-----------|-----------|

  A pattern:
e|-----------|-----------|
B|-----2-----|-----2-----|
G|-----------|-----------|
D|-----2-----|-----2-----|
A|-0---------|-0---------|
E|---------0-|---------0-|


Intro: Dm 2x

       D            D
Little boxes on the hillside
       D             D
Little boxes made of ticky tacky
       D            A
Little boxes on the hillside
       D              A
Little boxes just the same
          D               D
There's a green one and a pink one
      D              D
And a blue one and a yellow one
            D               A
And they're all made out of ticky tacky
         D                 Dm (2x)
And they all look just the same

And the people in the houses
All went to the university
Where they were put in boxes
And they came out all the same
There's a doctor and a lawyer
And a business executives
And they're all made out of ticky tacky
And they all look just the same (Hold D at end)
Добавлено: 18.10.2013
Другие материалы по этой песне:
  • Аккорды и текст

Страница создана 18.10.2013
http://primanota.ru/elvis-costello/little-boxes-chords.htm
Привет, Гость.
Предлагаем пройти революционный курс по гитаре.
Подарок от PrimaNota.Ru, забирай!