PrimaNota.ru - самый крупный в мире бесплатный архив песенных текстов, аккордов, табулатур и нот


Elvina M Hall - Jesus Paid It All - таба, видео

Регистрация Запомнить меня
Войти через:  Facebook Google Twitter Vk Yandex Mail.ru

Elvina M Hall - Jesus Paid It All - таба, видео

Печатать
Просмотров: 59
-------------------------------------------------------------------------------
                             Jesus paid it all - Elvina Hall
-------------------------------------------------------------------------------
Tabbed by:
E-mail:
key of D
Tuning:E-A-D-G-B-e

e|---------------------------------------------------------------------------|
B|---------0---------------------------------------------------------0-------|
G|----2----0---2-------------------------------------------------2---0---2---|
D|0-4-4--------4--4---0---0---2--------2--0---2---4---0------4---4-------4---|
A|----------------5---0---0---4--------4--2---4---5----------5---------------|
E|---------------------------------------------------------------------------|
   i hear the Savior say thy strength indeed is small child of weakness watch 
e|---------------------------------------------------------------------------|
B|---------------------------------------------------------------------------|
G|-----------------------0---------------------------------------------------|
D|--4----0---0----2--4---2----4---2--0---------------------------------------|
A|--5----0-----------5--------5---4--0---------------------------------------|
E|---------------------------------------------------------------------------|
   and pray find in me thine all in all
e|---------------------------------------------------------------------------|
B|---------0-----------3-------0----------------0----------3--2-----0----3---|
G|------2--0----2----------2---0--2---------2---0----2--------2-----0--------|
D|------4-------4--4---4---4------4--4--2---4--------4--4--4-------------0---|
A|-----------------5-----------------5--4---------------5--------------------|
E|---------------------------------------------------------------------------|
chorus: Jesus paid it all all to him i owe sin had left a crimson stain He 
e|---------------------------------------------------------------------------|
B|---------------------------------------------------------------------------|
G|--------0------------------------------------------------------------------|
D|---4----2----4----2---0----------------------------------------------------|
A|---2---------4----4---0----------------------------------------------------|
E|---------------------------------------------------------------------------|
   washed it white as snow 



************************************

| /   slide up
| \   slide down
| h   hammer-on
| p   pull-off
| ~   vibrato
| +   harmonic
| x   Mute note
| b   Bend
| pb  Pre-bend
| br  Bend release
| pbr Pre-bend release
| brb Bend release bend

************************************
Добавлено: 22.06.2016
Другие материалы по этой песне:
  • Аккорды и текст

Страница создана 22.06.2016
http://primanota.ru/elvina-m-hall/jesus-paid-it-all-chords.htm
Привет, Гость.
Предлагаем пройти революционный курс по гитаре.
Подарок от PrimaNota.Ru, забирай!