PrimaNota.ru - самый крупный в мире бесплатный архив песенных текстов, аккордов, табулатур и нот


Elvenking - The Open Breach - таба, видео

Регистрация Запомнить меня
Войти через:  Facebook Google Twitter Vk Yandex Mail.ru

Elvenking - The Open Breach - таба, видео

Печатать
Просмотров: 52
Song: The Open Breach
Artist: Elvenking
Album: The Scythe
Released: 2007
For Lyrics: http://www.darklyrics.com/lyrics/elvenking/thescythe.html#11
Tuning: Drop D Tuning

*I do not claim to own this work or music. All lyrics/music credit goes to Elvenking.
This tab is for educational purposes only.*

Intro:

(0:00)
e|------------10--------------------|
B|-/13-13-13-----13-12-10-----------|
G|-------------------------12-9/14v-|
D|----------------------------------|
A|----------------------------------|
D|----------------------------------|

(0:08)
e|------------10--------------------12~---17~---|
B|-/13-13-13-----13-12-10-----------------------|
G|-------------------------12-9v----------------|
D|----------------------------------------------|
A|----------------------------------------------|
D|----------------------------------------------|

(0:16)
e|------------10-------------------------------21*-|
B|-/13-13-13-----13-12-10-----------------19*------|
G|-------------------------12-9~---/14~------------|
D|-------------------------------------------------|
A|-------------------------------------------------|
D|-------------------------------------------------|

(0:24)
e|------------10------------------|
B|-/13-13-13-----13-12-10---------|
G|-------------------------12-14\-|
D|--------------------------------|
A|--------------------------------|
D|--------------------------------|


Verse:

(0:39)                                  (0:54)
e|----------------|                     e|-----------|
B|----------------|                     B|-----------|
G|----------------|                     G|-----------|
D|-5~-------------|                     D|-----------|
A|-3~---5~---3~---|                     A|-3~---2~---|
D|------5~---3~---|                     D|-3~---2~---|


Pre-Chorus:

(0:58)
e|--------------------------------------------------|
B|--------------------------------------------------|
G|--------------------------------------------------|
D|--------------------5--7--------------------------|
A|-22--22--5--22--22--3--5--22--22--5--22--22--5--3-| x 1
D|-22--22--5--22--22--------22--22--5--22--22--5--3-|
   **  **     **  **        **  **     **  **

(1:06)
e|-----------------------------------------|
B|-----------------------------------------|
G|-----------------------------------------|
D|-5~--------------------------------------|
A|-3~---7~---5~---3~---7~---5~---2~---3--5-| x 1
D|------7~---5~---3~---7~---5~---2~---3--5-|

(1:15)
e|--------------------------------------------------------|
B|--------------------------------------------------------|
G|--------------------------------------------------------|
D|--~-----------------------------------------------------|
A|-3~---5~---7~---3~---5~---2~---3~---5~---3~---5~---7~---| x 1
D|-3~---5~---7~---3~---5~---2~---3~---5~---3~---5~---7~---|


Chorus:

(1:25)                                                  (1:33)
e|------------10--------------------|                   e|------------10------------------------|
B|-/13-13-13-----13-12-10-----------|                   B|-/13-13-13-----13-12-10---------------|
G|-------------------------12-9/14v-|                   G|-------------------------12-14----14v-|
D|----------------------------------|                   D|-------------------------------14-----|
A|----------------------------------|   then...         A|--------------------------------------|
D|----------------------------------|                   D|--------------------------------------|


Post-Chorus Lead:

(1:40)
e|----------15-13---------------17-16----------------------|
B|-12-13-15--------13~---/15~---------17-16-16b-\15--13~---|
G|---------------------------------------------------------|
D|---------------------------------------------------------|
A|---------------------------------------------------------|
D|---------------------------------------------------------|

(1:47)
e|-18-19-20-21-22b-19--19h20p-------------------------------|
B|----------------------------17~---17h18p15~---13-12-10~---|
G|----------------------------------------------------------|
D|----------------------------------------------------------|
A|----------------------------------------------------------|
D|----------------------------------------------------------|


2nd Verse:

(2:04)                                  (2:20)
e|----------------|                     e|-----------|
B|----------------|                     B|-----------|
G|----------------|                     G|-----------|
D|-5~-------------|                     D|-----------|
A|-3~---5~---3~---|                     A|-3~---2~---|
D|------5~---3~---|                     D|-3~---2~---|


Pre-Chorus:

(2:23)
e|--------------------------------------------------|
B|--------------------------------------------------|
G|--------------------------------------------------|
D|--------------------5--7--------------------------|
A|-22--22--5--22--22--3--5--22--22--5--22--22--5--3-| x 1
D|-22--22--5--22--22--------22--22--5--22--22--5--3-|
   **  **     **  **        **  **     **  **

(2:31)
e|-----------------------------------------|
B|-----------------------------------------|
G|-----------------------------------------|
D|-5~--------------------------------------|
A|-3~---7~---5~---3~---7~---5~---2~---3--5-| x 1
D|------7~---5~---3~---7~---5~---2~---3--5-|

(2:40)
e|--------------------------------------------------------|
B|--------------------------------------------------------|
G|--------------------------------------------------------|
D|--~-----------------------------------------------------|
A|-3~---5~---7~---3~---5~---2~---3~---5~---3~---5~---7~---| x 1
D|-3~---5~---7~---3~---5~---2~---3~---5~---3~---5~---7~---|


Chorus:

(2:50)                                                  (2:58)
e|------------10--------------------|                   e|------------10------------------------|
B|-/13-13-13-----13-12-10-----------|                   B|-/13-13-13-----13-12-10---------------|
G|-------------------------12-9/14v-|                   G|-------------------------12-14----14v-|
D|----------------------------------|                   D|-------------------------------14-----|
A|----------------------------------|   then...         A|--------------------------------------|
D|----------------------------------|                   D|--------------------------------------|


Post-Chorus:

(3:02)
e|-----------------------------------------------------|
B|-----------------------------------------------------|
G|-----------------------------------------------------|
D|--------------------5--7-----------------------------|
A|-22--22--5--22--22--3--5--22--22--5--22--22--5--3~---| x 1
D|-22--22--5--22--22--------22--22--5--22--22--5--3~---|
   **  **     **  **        **  **     **  **


Folk Interlude:

(3:25)
e|------------------------------------------------------|
B|-13-12-13--13-12-13-15-12--13-12-13-15-13p12h13p12-10-|
G|------------------------------------------------------|
D|------------------------------------------------------|
A|------------------------------------------------------| x 2
D|------------------------------------------------------|

(3:33)
e|-1212-13--1212-13--1212-15-13--1212-13--1212-13--1212-10-12-|
B|------------------------------------------------------------|
G|------------------------------------------------------------|
D|------------------------------------------------------------|
A|------------------------------------------------------------| x 2
D|------------------------------------------------------------|

(3:41)
e|------------------------------------------------------|
B|-13-12-13--13-12-13-15-12--13-12-13-15-13p12h13p12-10-|
G|------------------------------------------------------|
D|------------------------------------------------------|
A|------------------------------------------------------| x 2
D|------------------------------------------------------|

(3:49)
e|-----------------|
B|-----------------|
G|-----------------|
D|-----------------|
A|-3~---5-5-5-5-5--|
D|-3~---5-5-5-5-5--|
        * * * * *


Solo:

(3:52)
e|--------------------------------------------------------------------------------------|
B|------------------------------16v-14~-----------------------202020202020-181818181818-|
G|-17v--16v--14v--12v--14h16p17----------16-16-17~--16h17p14----------------------------|
D|--------------------------------------------------------------------------------------|
A|--------------------------------------------------------------------------------------|
D|--------------------------------------------------------------------------------------|

e|-------------------------------------------------------------------------------|
B|-171717171717-151515151515-131313131313-15151515151515-17171717-18181818-17~---|
G|-------------------------------------------------------------------------------|
D|-------------------------------------------------------------------------------|
A|-------------------------------------------------------------------------------|
D|-------------------------------------------------------------------------------|

e|----------------------18-20-22br-|
B|-------------17h19p20------------|
G|-17-17h19p20---------------------|
D|---------------------------------|
A|---------------------------------|
D|---------------------------------|


Interlude:

(4:08)
e|----17-15-----15-------------------------17-15-----15-----------------------|
B|-13--------15-----17-15-----13-15-17--13--------15-----13-15-17~--15~--(13)-|
G|------------------------17--------------------------------------------------|
D|----------------------------------------------------------------------------|
A|----------------------------------------------------------------------------| x 2
D|----------------------------------------------------------------------------|


Pre-Chorus:

(4:22)
e|--------------------------------------------------------|
B|--------------------------------------------------------|
G|--------------------------------------------------------|
D|--~-----------------------------------------------------|
A|-3~---5~---7~---3~---5~---2~---3~---5~---3~---5~---7~---| x 1
D|-3~---5~---7~---3~---5~---2~---3~---5~---3~---5~---7~---|


Chorus:

(4:33)                                                  (4:41)
e|------------10--------------------|                   e|------------10------------------------|
B|-/13-13-13-----13-12-10-----------|                   B|-/13-13-13-----13-12-10---------------|
G|-------------------------12-9/14v-|                   G|-------------------------12-14----14v-|
D|----------------------------------|                   D|-------------------------------14-----|
A|----------------------------------|   then...         A|--------------------------------------|
D|----------------------------------|                   D|--------------------------------------|


Outro:

(4:47)               (4:52)
e|--------------------------------|
B|--------------------------------|
G|--------------------------------|
D|--~-----------------------------|
A|-5~---3~---7~-------3-3--7~---\-| x 1
D|-5~---3~---7~-------3-3--7~---\-|


-END-

Legend:
v   - vibrato
b   - bend
h   - hammer-on
p   - Pull off
~   - let note ring out
/   - slide up
\   - slide down
(#) - Ghost note
*   - Palm Mute (Underneath/below the tabs)
*   - Pinch Harmonic (Within the tabs)
Добавлено: 16.12.2015
Другие материалы по этой песне:
  • Аккорды и текст

Страница создана 16.12.2015
http://primanota.ru/elvenking/open-breach-chords.htm
Привет, Гость.
Предлагаем пройти революционный курс по гитаре.
Подарок от PrimaNota.Ru, забирай!