PrimaNota.ru - самый крупный в мире бесплатный архив песенных текстов, аккордов, табулатур и нот


Elvenking - Oak Woods Bestowed - таба, видео

Регистрация Запомнить меня
Войти через:  Facebook Google Twitter Vk Yandex Mail.ru

Elvenking - Oak Woods Bestowed - таба, видео

Печатать
Просмотров: 122
DAMKAYs CORRECTION OF OAK WOOD BESTOWED

I made some corrections to SageO'Wisdems tab, and this one works perfect with the 
company of the guitar pro tab you find on internet.

Oak Woods Bestowed

Part 1: Repeat twice

------0-1--0-1-3-1-0-1-0-----------------------------|E
-3--3--------------------1-1h3--3-3-1-3--------------|B
-----------------------------------------------------|G
-----------------------------------------------------|D
-----------------------------------------------------|A
-----------------------------------------------------|E

-s10--10-10-8-7-8-7h8p7s5--5-3-1-3-0-------------------------|E
-------------------------------------1-1h3--3-3-1-3----------|B
-------------------------------------------------------------|G
-------------------------------------------------------------|D
-------------------------------------------------------------|A
-------------------------------------------------------------|E

Part 2:

------0-1--3--1--0----3-1-0---3-5-0--1-0----------------------------|E
-3--3--------------3--------1------------1-3-------5h6-5------------|B
--------------------------------------------------------------------|G
--------------------------------------------------------------------|D
--------------------------------------------------------------------|A
--------------------------------------------------------------------|E

------0-1--3--1--0----3-1-0---3-5-0--1------------------------------|E
-3--3--------------3--------1---------5-1-3-3--3-5-3-1-1--1-3-5-3-3-|B
--------------------------------------------------------------------|G
--------------------------------------------------------------------|D
--------------------------------------------------------------------|A
--------------------------------------------------------------------|E

-----1-5---5h6-5-3-5-3s1-1-3-1--------------------------------------|E
-3-5--------------------------3-------------------------------------|B
--------------------------------------------------------------------|G
--------------------------------------------------------------------|D
--------------------------------------------------------------------|A
--------------------------------------------------------------------|E

Part 3: Repeat 4 Times

-s5-5-6-5-3-1-1-1-3-5-3-3-3-1-3-3s8-8-6-6--------------------------|E
--------------------------------------------------------------------|B
--------------------------------------------------------------------|G
--------------------------------------------------------------------|D
--------------------------------------------------------------------|A
--------------------------------------------------------------------|E

Part 4: Repeat twice

-s5-5-6-6-----8-6-5-5-5-6-6-----------------5-5-6-6-----8-6-5-5-5-6-6-5-------|E
----------5-5--------------8-6-5-6-----6-3----------5-5-----------------8-6-3-|B
------------------------------------------------------------------------------|G
------------------------------------------------------------------------------|D
------------------------------------------------------------------------------|A
------------------------------------------------------------------------------|E

Repeat Part 3, and Part 4 a bit.
Добавлено: 13.04.2012
Другие материалы по этой песне:

Страница создана 13.04.2012
http://primanota.ru/elvenking/oak-woods-bestowed-chords.htm
Привет, Гость.
Предлагаем пройти революционный курс по гитаре.
Подарок от PrimaNota.Ru, забирай!