PrimaNota.ru - самый крупный в мире бесплатный архив песенных текстов, аккордов, табулатур и нот


Eluveitie - Quoth The Raven - текст песни, таба, видео

Регистрация Запомнить меня
Войти через:  Facebook Google Twitter Vk Yandex Mail.ru

Eluveitie - Quoth The Raven - текст песни, таба, видео

Печатать
Просмотров: 375
-------------------------------------------------------------------------------
                          Eluveitie - Quoth The Raven
-------------------------------------------------------------------------------
Tabbed/Chords by: SirCotare
Email: sircotare@3025-game.de
Creative-Commons License: http://creativecommons.org/licenses/by-nc-sa/3.0/at/

Tuning: EADGBE
Capo @ 6th fret

NOTE: I was trying to play the song on my classic guitar so I focused on the main
      melodies which are played on violine, bagpipes and a hurdy-gurdy. I'm using
      standard chords for the guitar parts.
      Hopefully you like what I've come up with :)

F': Use this F (sounds better)
||--x--|-----|-----|----|
||--x--|-----|-----|----|
||-----|--x--|-----|----|
||-----|-----|--x--|----|
||-----|-----|-----|----|
||-----|-----|-----|----|

Aadd9:
||-----|-----|-----|----|
||-----|-----|-----|----|
||-----|--x--|-----|----|
||-----|--x--|-----|----|
||-----|-----|-----|----|
||-----|-----|-----|----|



INTRO: Meri Tadic (violine) & Päde Kistler (bagpipes)
-------------------|---------0-------|-----------------|-----------------|
-----------1-------|-3---0-----3-0-1-|-----0---1-------|-0---3---1---0---|
---2---2-------2^4-|-----------------|-2-----------2^4-|-----------------|
-------------------|-----------------|-----------------|-----------------|
-----0---0---0-----|---0---0---------|---0---0---0-----|---0---0---0---0-|
-------------------|-----------------|-----------------|-----------------|
                                                                        x2

INTERLUDE: Meri Tadic (violine)
  (Am)                 (Am)                 (F)                  (G)
----------------------|--------------0-----|--------------------|----------------------|
------------0-1-0-----|----------0-1---0-1-|---1/-0-------------|-----0/---------0-3-0-|
-----2/---2-------2-0-|---2/---2-----------|--2/----2---2---0-2-|----0/--2-0---0-------|
----2/--2-------------|--2/--2-------------|-3/-------3---3-----|---0/-------0---------|
---0/-----------------|-0/-----------------|--------------------|--2/------------------|
----------------------|--------------------|--------------------|-3/-------------------|

  (Am)                 (Am)                 (F)                  (G)
----------------------|--------------0-----|--------------------|--------------1-0-----|
------------0-1-0-----|----------0-1---0-1-|---1/-0-------------|-----0/-----------1-0-|
-----2/---2-------2-0-|---2/---2-----------|--2/----2---2---0-2-|----0/--2-0-----------|
----2/--2-------------|--2/--2-------------|-3/-------3---3-----|---0/-------0---------|
---0/-----------------|-0/-----------------|--------------------|--2/------------------|
----------------------|--------------------|--------------------|-3/-------------------|


BRIDGE: Ivo Henzi (guitar)
   Am    Am^F^Am    Am^F^Am    Am^F^Am    Am^F


VERSE: Anna Murpy (hurdy-gurdy)
  (Am)                   (F)
------------------------|--------------------|
------------------------|-1------------------|
------------------------|-2------------------|
------------------0-----|-3------------------|
-----0^2^3^2^0--3---3-2-|-3----0-2^0-2^3-2-0-|
------------------------|----3---------------|
   I am the mystery                       And

  (Am)                   (F)
------------------------|----------------------|
---1--------------------|-1--------------------|
---2--------------------|-2--------------------|
---2--------------0-----|-3--------------------|
---0-0^2^3^2^0--3---3-2-|-3----0-2-3^2^0---0-0-|
------------------------|----3-----------3-----|
   I am the bringer of the moonless night

  (Am)                   (F)
------------------------|--------------------|
---1--------------------|-1------------------|
---2--------------------|-2------------------|
---2--------------0-----|-3------------------|
---0-0^2^3^2^0--3---3-2-|-3----0-2^0-2^3-2-0-|
------------------------|----3---------------|
   I bear the wisdom arcane

  (Am)                   (F)
------------------------|--------------------|
---1--------------------|-1------------------|
---2--------------------|-2------------------|
---2--------------0-----|-3----------------0-|
---0-0^2^3^2^0--3---3-2-|-3---0^2-0^2^3-2^3/-|
------------------------|----3/--------------|
   I, harbinger from the burrowed isle

  (Am)              (Am)            (F)               (Am)
-------------------|---------------|-----------------|---------------|
---1---------------|-1~(1)~(1)~(1)-|-1---------------|-1~(1)~(1)~(1)-|
---2---------------|-2~(2)~(2)~(2)-|-2---------------|-2~(2)~(2)~(2)-|
---2-3^2-0-2-------|-2~(2)~(2)~(2)-|-3------0--------|-2~(2)~(2)~(2)-|
---0---------3-2^3-|-0~(0)~(0)~(0)-|-3-0-2-3---3-2^3-|-0~(0)~(0)~(0)-|
-------------------|---------------|-1---------------|---------------|
   Once you break forth, Harken the flap of my wings


CHORUS:
  Aadd9      Am
I haunt your fears
                         F'
Though you don't know of my duty
   G
To lead your path
             Aadd9    Am
Because I'll take you home to rest
            F'              G
In my black wings enfolding you


BRIDGE: Meri Tadic (violine) & Päde Kistler (bagpipes)
  (Am)              (Am)             (Am)            (Am)
-------------------|----------------|---------------|---------------|
---1---------------|-1--------------|---------------|-1~(1)~(1)~(1)-|
---2---------------|-2--------------|-2-------------|-2~(2)~(2)~(2)-|
---2-2-2^0^2-3-2^0-|-2--2---0-------|-2-2^0^2-3-2^0-|-2~(2)~(2)~(2)-|
---0---------------|-0----3---3-2^3-|-0-------------|-0~(0)~(0)~(0)-|
-------------------|----------------|---------------|---------------|


VERSE: Anna Murpy (hurdy-gurdy)
  (Am)                   (F)
------------------------|--------------------|
---1--------------------|-1------------------|
---2--------------------|-2------------------|
---2--------------0-----|-3------------------|
---0-0^2^3^2^0--3---3-2-|-3----0-2^0-2^3-2-0-|
------------------------|----3---------------|
   I am the icon sublime

  (Am)                   (F)
------------------------|----------------------|
---1--------------------|-1--------------------|
---2--------------------|-2--------------------|
---2--------------0-----|-3--------------------|
---0-0^2^3^2^0--3---3-2-|-3----0-2-3^2^0---0-0-|
------------------------|----3-----------3-----|
   The guide of the voyage clandestine

  (Am)                   (F)
------------------------|--------------------|
---1--------------------|-1------------------|
---2--------------------|-2------------------|
---2--------------0-----|-3------------------|
---0-0^2^3^2^0--3---3-2-|-3----0-2^0-2^3-2-0-|
------------------------|----3---------------|
   I sing the verses bewailed

  (Am)                   (F)
------------------------|--------------------|
---1--------------------|-1------------------|
---2--------------------|-2------------------|
---2--------------0-----|-3----------------0-|
---0-0^2^3^2^0--3---3-2-|-3---0^2-0^2^3-2^3/-|
------------------------|----3/--------------|
   I, torch of the radiant way

  (Am)              (Am)            (F)               (Am)
-------------------|---------------|-----------------|---------------|
---1---------------|-1~(1)~(1)~(1)-|-1---------------|-1~(1)~(1)~(1)-|
---2---------------|-2~(2)~(2)~(2)-|-2---------------|-2~(2)~(2)~(2)-|
---2-3^2-0-2-------|-2~(2)~(2)~(2)-|-3------0--------|-2~(2)~(2)~(2)-|
---0---------3-2^3-|-0~(0)~(0)~(0)-|-3-0-2-3---3-2^3-|-0~(0)~(0)~(0)-|
-------------------|---------------|-1---------------|---------------|
   Once you step out, Hearken the strokes of my wings

                     (F)                              (Am)
--------------------|---------------|----------------|---------------|
--------------------|-1~(1)~(1)~(1)-|----------------|-1~(1)~(1)~(1)-|
--------------------|-2~(2)~(2)~(2)-|----------------|-2~(2)~(2)~(2)-|
-----0--------0-----|-3~(3)~(3)~(3)-|-0------------0-|-2~(2)~(2)~(2)-|
---0---3^2^3----0-2-|-3~(3)~(3)~(3)-|---3-2-3-3^2^3/-|-0~(0)~(0)~(0)-|
--------------------|-1~(1)~(1)~(1)-|----------------|---------------|
   Once you will leave your cocoon, I will be there


CHORUS:
  Aadd9      Am
I haunt your fears
                         F'
Though you don't know of my duty
   G
To lead your path
             Aadd9    Am
Because I'll take you home to rest
            F'              G
In my black wings enfolding you


INTERLUDE: (Well... I haven't come up with anything for this part for now...)

And death will smile his barefaced smile
Initiating your final anguish
It is not before my arrival
That you will be led to feel
The natural serenity of leaving this world...
Hear my wings caressing the wind!
Hear my cry!


CHORUS:
  Aadd9      Am
I haunt your fears
                         F'
Though you don't know of my duty
   G
To lead your path
             Aadd9    Am
Because I'll take you home to rest
            F'              G
In my black wings enfolding you


OUTRO: Meri Tadic (violine)
  (Am)                 (Am)                 (F)                  (G)
----------------------|--------------0-----|--------------------|----------------------|
------------0-1-0-----|----------0-1---0-1-|---1/-0-------------|-----0/---------0-3-0-|
-----2/---2-------2-0-|---2/---2-----------|--2/----2---2---0-2-|----0/--2-0---0-------|
----2/--2-------------|--2/--2-------------|-3/-------3---3-----|---0/-------0---------|
---0/-----------------|-0/-----------------|--------------------|--2/------------------|
----------------------|--------------------|--------------------|-3/-------------------|

  (Am)                 (Am)                 (F)                  (G)                    (Am)
----------------------|--------------0-----|--------------------|--------------1-0-----|------|
------------0-1-0-----|----------0-1---0-1-|---1/-0-------------|-----0/-----------1-0-|------|
-----2/---2-------2-0-|---2/---2-----------|--2/----2---2---0-2-|----0/--2-0-----------|---2/-|
----2/--2-------------|--2/--2-------------|-3/-------3---3-----|---0/-------0---------|--2/--|
---0/-----------------|-0/-----------------|--------------------|--2/------------------|-0/---|
----------------------|--------------------|--------------------|-3/-------------------|------|
Добавлено: 23.03.2012
Другие материалы по этой песне:

Страница создана 17.03.2012
http://primanota.ru/eluveitie/quoth-the-raven-chords.htm
Привет, Гость.
Предлагаем пройти революционный курс по гитаре.
Подарок от PrimaNota.Ru, забирай!