PrimaNota.ru - самый крупный в мире бесплатный архив песенных текстов, аккордов, табулатур и нот


Eluveitie - Lugdunon - текст песни, таба, видео

Регистрация Запомнить меня
Войти через:  Facebook Google Twitter Vk Yandex Mail.ru

Eluveitie - Lugdunon - текст песни, таба, видео

Печатать
Просмотров: 298
written by SwissMusikHero

Video Lesson on youtube!
http://www.youtube.com/watch?v=Kp9JwmbnfZ4

Song parts:
Intro
Verse
Pre Chorus
Chorus
Verse
Bridge
Guitar Solo
Chorus (!3 notes higher -> 3#!)

Drop C Tuning!

* = Palm Muting, Muted Sound
T = Tapping (ex. T(5-8-12))
b = bending to ... (ex. b6/8)


Intro = Chorus

D: ---------------------------------------|
A: ---------------------------------------|
F: -----------8--------6--------6---------|
C: --6--------8--------6--------6----1----|--6--   2x
G: --6--------6--------4--------3----1----|--6--
C: --6-------------------------------1----|--6--...


Verse

D:----------------------------------------------------|-------|
A:----------------------------------------------------|-------|
F:----------------------------------------------------|-------|
C:--3-3*--3*--1-------------6-6*--6*--6-1-1*--1*--1*--|--3----|   2x
G:--3-3*--3*--1-4-4*--4*--4-6-6*--6*--6-1-1*--1*--1*--|--3----|
C:--3-3*--3*--1-6-6*--6*--6-6-6*--6*--6-1-1*--1*--1*--|--3----|..


Pre Chorus

D:--------------------------------------------------|-------|
A:--------------------------------------------------|-------|
F:--------------------------------------------------|-------|
C:--3--------3-------------6---------6--1--------1--|--3----|   2x
G:--3--------3--4-------4--6---------6--1--------1--|--3----|
C:--3--------3--6------6-6-6---------6--1--------1--|--3----|..


Bridge

D:--------------------------------------------------------------------|-----|
A:--------------------------------------------------------------------|-----|
F:--------------------------------------------------------------------|-----|
C:--6----*6*6*6*6*6-1----*1*1*1*1*1-3----*3*3*3*3*3-------------------|--6--| 2x
G:--6----*6*6*6*6*6-1----*1*1*1*1*1-3----*3*3*3*3*3-4----*4*4*4*4*-**-|--6--|
C:--6----*6*6*6*6*6-1----*1*1*1*1*1-3----*3*3*3*3*3-6----*6*6*6*6*-**-|--6--|..


Solo

D:--------------------------------------------------------16-13---------------|
A:-9-~~9-9--16-~~9-16-(b17/18)-T(13-9-13-9-16-13-16-13-16-13------16-13-16-13-|
F:------8---------------------------------------------------------------------|
C:----------------------------*------All this is tapping!!--------------------|
G:----------------------------------------------------------------------------|
C:----------------------------------------------------------------------------|

D:---------------------------------------------------------------------|
A:--13-9-13-9-13-9--11-6-11-6-11-6--9-4-9-4-9-4)-9-~~------------------|
F:---------------------------------------------------------------------|
C:--*-----------All this is tapping!!----------*-----------------------|
G:---------------------------------------------------------------------|
C:---------------------------------------------------------------------|

D:--------------------------------------13---13-16-(b14/15)-------------|
A:--11--9-11-9-8-----9--8-9-8-6--4--6*----------------------------------|
F:----------------------------------------------------------------------|
C:----------------------------------------------------------------------|
G:----------------------------------------------------------------------|
C:----------------------------------------------------------------------|

D:--------------------------------------13---13-16-(b14/15)-------------|
A:--11--9-11-9-8-----9--8-9-8-6--4--6*----------------------------------|
F:----------------------------------------------------------------------|
C:----------------------------------------------------------------------|
G:----------------------------------------------------------------------|
C:----------------------------------------------------------------------|

D:--------------------------------------13---13-16-(b14/15)-------------|
A:--11--9-11-9-8-----9--8-9-8-6--4--6*----------------------------------|
F:----------------------------------------------------------------------|
C:----------------------------------------------------------------------|
G:----------------------------------------------------------------------|
C:----------------------------------------------------------------------|

D:----------------------------------------------------------------------|
A:--13--T(16-13-16-13-16-13)--------------------------------------------|
F:---------------------------15-13-12-13----finished!-------------------|
C:----------------------------------------------------------------------|
G:----------------------------------------------------------------------|
C:----------------------------------------------------------------------|


Last Chorus (3#!)

D: --------------------------------------------------|
A: --------------------------------------------------|
F: -----------11--------9--------9-------------------|
C: --9--------11--------9--------9----4----|--9------|   2x
G: --9--------9---------7--------6----4----|--9------|
C: --9--------------------------------4----|--9------|..


pls watch the Video Lesson on youtube to this Song!
http://www.youtube.com/watch?v=Kp9JwmbnfZ4
Добавлено: 03.06.2012
Другие материалы по этой песне:

Страница создана 13.03.2012
http://primanota.ru/eluveitie/lugdunon-chords.htm
Привет, Гость.
Предлагаем пройти революционный курс по гитаре.
Подарок от PrimaNota.Ru, забирай!