PrimaNota.ru - самый крупный в мире бесплатный архив песенных текстов, аккордов, табулатур и нот


Elton John - Whispers - текст песни, бас-таба, видео

Регистрация Запомнить меня
Войти через:  Facebook Google Twitter Vk Yandex Mail.ru

Elton John - Whispers - текст песни, бас-таба, видео

Печатать
Просмотров: 112
Новый альбом группы 'Черный Кузнец' по культовому сериалу 'Сверхъестественное'!
Tuning :

G
D
A
D#

Bass Start - 00:35


[Verse] (x2)
G |----------------|----------------|----------------|----------------|
D |----------------|----------------|----------------|--6-------------|
A |--6---3---------|--4---4---------|--4---4---------|------6---------|
D#|----------------|----------------|----------------|----------------|

G |----------------|----------------|----------------|----------------|
D |----------------|----------------|----------------|----------------|
A |--6---3---------|--4---4---------|--4---4---------|--3---3---------|
D#|----------------|----------------|----------------|----------------|

G |----------------|----------------|----------------|----------------|
D |----------------|----------------|----------------|----------------|
A |--2---2---------|--4---4---------|--6-------------|--6-------------|
D#|----------------|----------------|------0---------|------0---------|

[Chorus]
G |----------------|----------------|----------------|----------------|
D |----------------|--3-------------|----------------|--1---1---------|
A |--3-------------|----------------|--1-------------|----------------|
D#|----------------|----------------|----------------|----------------|

G |----------------|----------------|----------------|----------------|
D |----------------|--3-------------|----------------|----------------|
A |--3-------------|----------------|--1-------------|--3---3---------|
D#|----------------|----------------|----------------|----------------|

G |----------------|----------------|----------------|----------------|
D |----------------|----------------|----------------|----------------|
A |--2---2---------|--4---4---------|--6-------------|--6-------------|
D#|----------------|----------------|------0---------|------0---------|

[Instrumental]
G |----------------|----------------|----------------|----------------|
D |----------------|----------------|----------------|--6-------------|
A |--6---3---------|--4---4---------|--4---4---------|------6---------|
D#|----------------|----------------|----------------|----------------|

G |----------------|----------------|----------------|----------------|
D |----------------|----------------|----------------|----------------|
A |--6---3---------|--4---4---------|--4---4---------|--3---3---------|
D#|----------------|----------------|----------------|----------------|

[Chorus Last Part]
G |----------------|----------------|----------------|----------------|
D |----------------|----------------|----------------|----------------|
A |--2---2---------|--4---4---------|--6-------------|--6-------------|
D#|----------------|----------------|------0---------|------0---------|

[Chorus] (x2)
G |----------------|----------------|----------------|----------------|
D |----------------|--3-------------|----------------|--1---1---------|
A |--3-------------|----------------|--1-------------|----------------|
D#|----------------|----------------|----------------|----------------|

G |----------------|----------------|----------------|----------------|
D |----------------|--3-------------|----------------|----------------|
A |--3-------------|----------------|--1-------------|--3---3---------|
D#|----------------|----------------|----------------|----------------|

G |----------------|----------------|
D |----------------|----------------|
A |--2---2---------|--4---4---------|
D#|----------------|----------------|

[Outro]
G |----------------|----------------|----------------|----------------| (x2)
D |----------------|----------------|----------------|--6-------------|
A |--6---3---------|--4---4---------|--4---4---------|------6---------|
D#|----------------|----------------|----------------|----------------|

G |----------------|----------------|----------------|----------------|
D |----------------|----------------|----------------|----------------|
A |--6---3---------|--4---4---------|--4---4---------|--3---3---------|
D#|----------------|----------------|----------------|----------------|

G |----------------|----------------|----------------|----------------|
D |----------------|----------------|----------------|----------------|
A |--2---2---------|--4---4---------|----------------|----------------|
D#|----------------|----------------|--0---0---------|--0---0---------|

(04:06 ~ 05:15)
G|----------------|
D|----------------|
A|----------------|
D|--0---0---------|
Добавлено: 01.03.2018
Другие материалы по этой песне:
  • Аккорды и текст

Страница создана 12.04.2012
http://primanota.ru/elton-john/whispers-chords.htm
Привет, Гость.
Предлагаем пройти революционный курс по гитаре.
Подарок от PrimaNota.Ru, забирай!