PrimaNota.ru - самый крупный в мире бесплатный архив песенных текстов, аккордов, табулатур и нот


Elton John - Latitude - текст песни, бас-таба, видео

Регистрация Запомнить меня
Войти через:  Facebook Google Twitter Vk Yandex Mail.ru

Elton John - Latitude - текст песни, бас-таба, видео

Печатать
Просмотров: 45
Новый альбом группы 'Черный Кузнец' по культовому сериалу 'Сверхъестественное'!
Intro :
G|-----------------------|-----------------------|
D|5----------------------|3-------------------7--|
A|------------5----------|------------3----------|
E|-----------------------|-----------------------|

G|-----------------------|-----------------------|
D|5----------------------|3----------------------|
A|------------5----------|------------3----------|
E|-----------------------|-----------------------|

Verse 1 :
G|-----------------------|-----------------------|
D|5----------------------|5----------------------|
A|------------5----------|------------3----------|
E|-----------------------|-----------------------|

G|-----------------------|-----------------------|
D|5----------------------|-----------------------|
A|------------5----------|7-----------3----------|
E|-----------------------|-----------------------|

G|-----------------------|-----------------------|
D|5----------------------|-----------------------|
A|------------5----------|--------0-2-3----------|
E|-----------------------|0----------------------|

G|-----------------------|-----------------------|
D|5----------------------|-----------------------|
A|------------5----------|------------3----------|
E|-----------------------|1----------------------|

G|-----------------------|-----------------------|
D|5----------------------|3-----------------/-7--|
A|------------5----------|------------3---5------|
E|-----------------------|-----------------------|

G|-----------------------|-----------------------|
D|5----------------------|5----------------------|
A|------------5----------|------------3----------|
E|-----------------------|-----------------------|

G|-----------------------|-----------------------|
D|5----------------------|-----------------------|
A|------------5----------|7-----------3----------|
E|-----------------------|-----------------------|

G|-----------------------|-----------------------|
D|5----------------------|--------------------7--|
A|------------5----------|7-----------3----------|
E|-----------------------|-----------------------|

G|-----------------------|-----------------------|
D|5----------------------|-----------------------|
A|------------5----------|8---7---5---3---2------|
E|-----------------------|--------------------4--|

G|-----------------------|
D|-----------------------|
A|----------------0---1--|
E|3-----------3----------|

Chorus :
G|-----------------------|-----------------------|
D|------------2----------|------------5----------|
A|2----------------------|3----------------------|
E|-----------------------|-----------------------|

G|-----------------------|-----------------------|
D|------------5----------|-----------------------|
A|5----------------------|-----------------------|
E|-----------------------|5-----------3----------|

G|-----------------------|-----------------------|
D|-----------------------|-----------------------|
A|----------------2---4--|5-----------2----------|
E|5-----------5----------|-----------------------|

G|-----------------------|-----------------------|
D|-----------------------|5----------------------|
A|------------3----------|------------2----------|
E|0----------------------|-----------------------|

G|-----------------------|-----------------------|
D|2----------------------|-----------------------|
A|------------3----------|----2---3---5----------|
E|-----------------------|3----------------------|

G|-----------------------|
D|3----------------------|
A|------------3----------|
E|-----------------------|

Solo :
G|-----------------------|-----------------------|
D|5----------------------|3-------------------7--|
A|------------5----------|------------3----------|
E|-----------------------|-----------------------|

G|-----------------------|-----------------------|
D|5----------------------|3-------------------7--|
A|------------5----------|--------5---3----------|
E|-----------------------|-----------------------|

Verse 2 :
G|-----------------------|-----------------------|
D|5----------------------|5----------------------|
A|------------5----------|------------3----------|
E|-----------------------|-----------------------|

G|-----------------------|-----------------------|
D|5----------------------|-----------------------|
A|------------5----------|7-------0-2-3-------5--|
E|-----------------------|-----------------------|

G|-----------------------|----------4-5----------|
D|5----------------------|2---4---5--------------|
A|------------5----------|-----------------------|
E|-----------------------|-----------------------|

G|-----------------------|-----------------------|
D|5-----\----------------|-----------------------|
A|------------5----------|8---7---5---3---2---0--|
E|-----------------------|-----------------------|

G|-----------------------|
D|-----------------------|
A|----------------0---1--|
E|3-----------3----------|

Chorus :
G|-----------------------|-----------------------|
D|------------2----------|------------5----------|
A|2-------------------5--|3----------------------|
E|-----------------------|-----------------------|

G|-----------------------|-----------------------|
D|-----------------------|7-----------5----------|
A|5--------/--10---------|-----------------------|
E|-----------------------|-----------------------|

G|-----------------------|-----------------------|
D|7-----------7----------|-----------------------|
A|----------------2---4--|5-----\-----2----------|
E|-----------------------|-----------------------|

G|-----------------------|-----------------------|
D|-----------------------|5----------------------|
A|------------3----------|------------2----------|
E|0----------------------|-----------------------|

G|-----------------------|-----------------------|
D|2----------------------|-----------------------|
A|------------3----------|------6h7---5----------|
E|-----------------------|3----------------------|

G|-----------------------|
D|-----------------------|
A|8-------\---3----------|
E|-----------------------|

Solo :
G|-----------------------|-----------------------|
D|5----------------------|5----------------------|
A|------------5----------|----3-------3----------|
E|-----------------------|--------3--------------|

G|-----------------------|-----------------------|
D|5----------------------|-----------------------|
A|------------5----------|7-------0-2-3---2---0--|
E|-----------------------|-----------------------|

G|-----------------------|-----------------------|
D|-----------------------|-----------------------|
A|------------5----------|7-----------3----------|
E|3----------------------|-----------------------|

G|-----------------------|-----------------------|
D|5----------------------|-----------------------|
A|------------5----------|8---7---5---3---2---0--|
E|-----------------------|-----------------------|

G|-----------------------|
D|-----------------------|
A|----------------0---1--|
E|3-----------3----------|

Chorus :
G|-----------------------|-----------------------|
D|------------2----------|------------5----------|
A|2-------------------5--|3----------------------|
E|-----------------------|-----------------------|

G|-----------------------|-----------------------|
D|------------5----------|7-----------5----------|
A|5----------------------|-----------------------|
E|-----------------------|-----------------------|

G|--------6---6---7---9--|11---------------------|
D|7---9------------------|-----------------------|
A|-----------------------|------------2----------|
E|-----------------------|-----------------------|

G|-----------------------|-----------------------|
D|-----------------------|5----------------------|
A|------------3----------|------------2----------|
E|0----------------------|-----------------------|

G|-----------------------|-----------------------|
D|2----------------------|-----------------------|
A|--------0-2-3----------|------------5----------|
E|-----------------------|3----------------------|

G|-----------------------|-----------------------|
D|3----------------------|5----------------------|
A|------------3----------|------------5----------|
E|-----------------------|-----------------------|

G|-----------------------|-----------------------|
D|3-------------------7--|5----------------------|
A|--------5---3----------|------------5----------|
E|-----------------------|-----------------------|

G|-----------------------|-----------------------|
D|3--------------7-5-----|-----------------------|
A|------------3------7-5-|-----------------------|
E|-----------------------|3----------------------|

Добавлено: 17.11.2017
Другие материалы по этой песне:
  • Аккорды и текст

Страница создана 08.03.2012
http://primanota.ru/elton-john/latitude-chords.htm
Привет, Гость.
Предлагаем пройти революционный курс по гитаре.
Подарок от PrimaNota.Ru, забирай!