PrimaNota.ru - самый крупный в мире бесплатный архив песенных текстов, аккордов, табулатур и нот


Eltjo Haselhoff - Silent Night - таба, видео

Регистрация Запомнить меня
Войти через:  Facebook Google Twitter Vk Yandex Mail.ru

Eltjo Haselhoff - Silent Night - таба, видео

Печатать
Просмотров: 92
Eltjo Haselhoff - Silent Night
Album: Christmas Wishes

Tuning: "Dsus" DADGAD
Capo: II

h - hammer on
p - pull off
/ - slide up

d|---------------|---------0-----|---------------|
A|-0-------2-0---|-------0---0---|-0-------2-0---|
G|-------0-----0-|-----0-------0-|-------0-----0-|
D|---0h2---------|-2/4-----------|---0h2---------|
A|---------------|---------------|---------------|
D|-0-------------|-0-------------|-0-------------|

d|---------0---2-4-|-2-----2-----|-----------0---|
A|-------0---0-0---|-0---0---0---|-4-------4---4-|
G|-----0-----------|---0-------0-|-------0-------|
D|-2/4-------------|-------------|---0h2---------|
A|-----------------|-0-----------|-0-------------|
D|-0---------------|-------------|---------------|

d|-0---------0---|-------------|-------0-----|
A|-0---------0---|-0---------0-|-0h2-----2---|
G|---------0---0-|---------0---|-----0-------|
D|-------0-------|---0-2-4-----|-------------|
A|---0h2---------|-------------|-------------|
D|-0-------------|-0-----------|-5-----------|

d|-----------|---------------|---------0-----|
A|-5---------|-0-------2-0---|-------0---0---|
G|-4---6-4---|-------0-----0-|-----0-------0-|
D|---0-----0-|---0h2---------|-2/4-----------|
A|-----------|---------------|---------------|
D|-5---------|-0-------------|---0-----------|

d|-------0-----|-----------|---------------|
A|-0h2-----2---|-5---------|-0-------2-0---|
G|-----0-------|-4---6-4---|-------0-----0-|
D|-------------|---0-----0-|---0h2---------|
A|-------------|-----------|---------------|
D|-5-----------|-5---------|-0-------------|

d|---------0---2-4-|-2-----2-----|-5-2---|
A|-------0---0-----|-0-0-----0---|-7-0-4-|
G|-----0-------0---|-----0-----0-|-----0-|
D|-2/4-------------|-------------|-------|
A|-----------------|-0-----------|-0-----|
D|---0-------------|-------------|-------| 

d|-0-------------|-----4------|-0-----------|
A|-0---------0---|----2-----2-|-0-----0-----|
G|---------0-----|---2----2---|---------0---|
D|---0h2-4-----4-|--4---4-----|---0h2-----4-|
A|---------------|-2----------|-------------|
D|-0-------------|------------|-0-----------|

d|---0-------|-----7p5p0-------|---|
A|-0---0-----|-----------0-----|---|
G|-0-----0---|-------------0---|---|
D|-2-------2-|---0-----------4-|-4-|
A|-0---------|-0/5-------------|---|
D|-----------|---0-------------|---|
Добавлено: 26.10.2013
Другие материалы по этой песне:
  • Аккорды и текст

Страница создана 26.10.2013
http://primanota.ru/eltjo-haselhoff/silent-night-chords.htm
Привет, Гость.
Предлагаем пройти революционный курс по гитаре.
Подарок от PrimaNota.Ru, забирай!