PrimaNota.ru - самый крупный в мире бесплатный архив песенных текстов, аккордов, табулатур и нот


Elodie Frege - La Ceinture - аккорды и текст, видео

Регистрация Запомнить меня
Войти через:  Facebook Google Twitter Vk Yandex Mail.ru

Elodie Frege - La Ceinture - аккорды и текст, видео

Печатать
Просмотров: 249
Авторы: Benjamin Biolay

La Ceinture
Elodie Frege
 ______________________________________________________________________________
|                                                                              |
|                                 LA CEINTURE                                  |
|                          (P & M : Benjamin Biolay)                           |
|______________________________________________________________________________|
                                                                   Am    =x02210
INTRO :                                                            Am/G  =3x2210
                                                                   Am/F# =2x2210
|Am      Am/G    |Am/F#   Am/F    | (2 fois)                       Am/F  =1x2210
________________________________________________________________________________
Am              G/B                    C                           Am    =x02210
Non pas sur la bouche   Même si c'est louche                       G/B   =x20033
            F      Fm7           Em                                C     =x32010
Puisque ma langue   A le goût de ta vertu                          F     =133211
Dm             Bm7/5-  E7                                          Fm7   =133210
De ton honneur per----du                                           Em    =022000
Am              G/B                    C                           Dm    =xx0231
Non pas sur les lèvres   Même si j'en rêve                         Bm7/5-=x2323x
             F      Fm7               Em                           E7    =020100
Même si je tremble   Et bien que mon coeur soit nu
Dm            Bm7/5-  E7
Mon âme est revê-----tue
Fm7            Em           Dm              Em
De pudeur et d'impudence   Sans te faire offense
Fm7                Em
Mieux vaut pas tenter sa chance                                    Am    =x02210
Bm7/5-  Dm7/5-                Am          Am9   Am    Am9          Am9   =x02200
Rien ne dure   Au dessus de la ceinture...                         Dm7/5-=x5656x
________________________________________________________________________________

Non pas sur la bouche   Même sous la douche
Même si c'est dur   Je te mordrai c'est promis
Tous les coups sont per-mis

Non pas sur les lèvres  Même pas en rêve
A sang pour sûr
Ou tu mangeras ton pain gris   Mon coeur est endur-ci

Ne tire pas sur l'ambulance   Car de la potence
Plus rien n'a plus d'importance
Rien ne dure   Au dessus de la ceinture
________________________________________________________________________________
(Instrumental sur accords du début de couplet)
________________________________________________________________________________

Non pas sur la bouche   Je sais je touche
Le fond du lac   Le temps des cerises est mort
Le diable est dans le corps

Non pas sur les lèvres   Non c'est pas mièvre
C'est pas le trac
Mais je préfère me donner crue   Sans revers ni re-fus

Rendons nous à l'évidence   Tout est cuit d'avance
Mieux n'vaut pas tenter sa chance
Rien ne dure   Au dessus de la ceinture
________________________________________________________________________________
(Instrumental sur accords du début de couplet)
________________________________________________________________________________

Non pas sur la bouche   Je sais c'est louche
Puisque ma peau   A l'odeur de ton odeur
Au dehors il fait chaud

Non pas sur les lèvres   Jamais de trêve
Et pas d'assauts
Le bonheur est dans la pente   Entre le sol et le ventre

Entre l'oubli et l'oubli   Bel oiseau du paradis
Joue plutôt “jeux interdits“
Rien ne dure   Au dessus de la ceinture
________________________________________________________________________________

FIN (Instrumental sur accords du couplet)
________________________________________________________________________________

    Am           Am/G              Am/F#           Am/F      
||--0-------------------------|----------------------------||
||-----------1---1--------1---|--1-------1---1--------1----||
||-------2------------2-------|------2------------2-------*||
||-----2------------2---------|----2------------2---------*||
||--0-------------------------|----------------------------||
||---------------3------------|--2-----------1-------------||


     Am           G/B              C            F           
||--0-------------------------|--0--------0---1------------|
||-----------1---3--------3---|------------------------1---|
||*------2------------0-------|-------0------------2-------|
||*----2------------0---------|-----2------------3---------|
||--0------------2------------|--3-------------------------|
||----------------------------|---------------1------------|


   Fm7          Em              Dm           Bm7/5- E7      
|--0------------0------------|--1--------1----------------||
|-----------1------------0---|-------3-------3------0-----||
|-------2------------0-------|-----2---------2------1----*||
|-----3------------2---------|--0------------3------0----*||
|----------------------------|---------------2------2-----||
|--1------------0------------|----------------------0-----||


   Fm7           Em              Dm           Em            
|--0------------0------------|--1--------1---0------------|
|-----------1------------0---|-------3----------------0---|
|-------2------------0-------|-----2--------------0-------|
|-----3------------2---------|--0---------------2---------|
|----------------------------|----------------------------|
|--1------------0------------|---------------0------------|


  Fm7           Em              Bm7/5-                      
|--0------------0------------|----------------------------|
|-----------1------------0---|--3--------3---3--------3---|
|-------2------------0-------|-------2------------2-------|
|-----3------------2---------|-----3------------3---------|
|----------------------------|--2------------2------------|
|--1------------0------------|----------------------------|


  Dm7/5-                        Am           Am9            
|----------------------------|--0-------------------------|
|--6--------6---6--------6---|-----------1---0--------0---|
|-------5------------5-------|-------2------------2-------|
|-----6------------6---------|-----2------------2---------|
|--5------------5------------|--0------------0------------|
|----------------------------|----------------------------|


  Am            Am9             
|----------------------------||
|--0H=1-----1---0--------0---||  H=Hammer
|-------2------------2-------||
|-----2------------2---------||
|--0------------0------------||
|----------------------------||
Добавлено: 08.06.2012
Другие материалы по этой песне:
  • Аккорды и текст

Страница создана 08.06.2012
http://primanota.ru/elodie-frege/la-ceinture-chords.htm
Привет, Гость.
Предлагаем пройти революционный курс по гитаре.
Подарок от PrimaNota.Ru, забирай!