PrimaNota.ru - самый крупный в мире бесплатный архив песенных текстов, аккордов, табулатур и нот


Elodie Frege - Chez Moi - таба, видео

Регистрация Запомнить меня
Войти через:  Facebook Google Twitter Vk Yandex Mail.ru

Elodie Frege - Chez Moi - таба, видео

Печатать
Просмотров: 106
Авторы музыки: Élodie Frégé
Авторы текста: Élodie Frégé
-------------------------------------------------------------------------
CHEZ MOI – Elodie Frégé
-------------------------------------------------------------------------
Tabbed by: Kengus

Standard tuning

OFFICIAL WEBSITE: http://elodiefrege.artistes.universalmusic.fr/

Very nice song to practice your picking. This is how I hear it - I'm
pretty sure it's almost correct, the tricky bits are the transitions
between the different parts of the song.

INTRO/VERSE tab
  D#5                                Bmaj7            Cm7
e|-----------------------------------------------------------------------|
B|-----4---0---4--------4---0------------4---0------------4---0----------|
G|---3---3---3---3----3---3---3---3----3---3---3---3----3---3---3---3----|
D|-1----------------1-----------1----------------------------------------|
A|-----------------------------------2-----------2----3-----------3------|
E|-----------------------------------------------------------------------|
  D#5                                Bmaj7           Bmaj7+ Bbsus4
e|-----------------------------------------------------------------------|
B|-----4---0---4--------4---0------------4---0------------4-----4---4----|
G|---3---3---3---3----3---3---3---3----3---3---3---3----3-----3---3------|
D|-1----------------1-----------1----------------------------------------|
A|-----------------------------------2-----------2----0-----1------------|
E|-----------------------------------------------------------------------|

VERSE1 lyrics
D#5                          Bmaj7
Pour vous le dire, il eut suffit
   Cm7
De quelques silences
 D#5                              Bmaj7
Etreints sur le coeur, berçant l'aveu
    Bmaj7+   Bbsus4
Presque une indécence...

e|-----------------------------------|
B|-----4---0---4--------4-----4---4--|
G|---3---3---3---3----3-----3---3----|
D|-1---------------------------------|
A|------------------0-----1----------|
E|-----------------------------------|

VERSE2 lyrics
D#5                           Bmaj7
Pour vous l'écrire, il s'en fallut
   Cm7
De quelques ratures
   D#5                        Bmaj7
En marge des yeux, au coin de nos
   Bmaj7+   Bbsus4
Puériles peintures

PRE-CHORUS tab
  G#m               F                G                A
e|-4---4---4---4----1---1---1---1----3---3---3---3----5---5---5---5------|
B|-----------------------------------------------------------------------|
G|-4-4---4---4---4--2-2---2---2---2--4-4---4---4---4--6-6---6---6---6----|
D|-----------------------------------------------------------------------|
A|-----------------------------------------------------------------------|
E|-4----------------1----------------3----------------5------------------|

PRE-CHORUS lyrics
   G#m                 F
On joue en boucle l'ironie
   G                    A
De peur de toucher à l'envie de...

CHORUS tab
  Dm                                Bb6
e|-1-------0---1---1-------0---1----3-------0---3---3-------0---3-----|
B|-----3---------3-----3----------------3---------------3-------------|
G|---2---2---2-------2---2---2---2----3---3---3---3---3---3---3---3---|
D|-0---------------0--------------------------------------------------|
A|----------------------------------1---------------1-----------------|
E|--------------------------------------------------------------------|
  Dm                                Bb6              C
e|-1-------0---1---1-------0---1----3-------0---3----0-------0---0----|
B|-----3---------3-----3----------------3----------------1------------|
G|---2---2---2-------2---2---2---2----3---3---3---3----0---0---0---0--|
D|-0---------------0--------------------------------------------------|
A|----------------------------------1----------------3----------------|
E|--------------------------------------------------------------------|
  Dm                                Bb6              C
e|-1-------0---1---1-------0---1----3-------0---3----0-------0---0----|
B|-----3---------3-----3----------------3----------------1------------|
G|---2---2---2-------2---2---2---2----3---3---3---3----0---0---0---0--|
D|-0---------------0--------------------------------------------------|
A|----------------------------------1----------------3----------------|
E|--------------------------------------------------------------------|
  Badd11
e|---------0---------------0--------|
B|-4-----------4---4-----------4----|
G|-----4---------4-----4------------|
D|---4---4---4-------4---4---4---4--|
A|-2--------------------------------|
E|----------------------------------|

CHORUS lyrics
   Dm                 Bb6
Montrer le masque sans étude, en traits
   Dm             Bb6      C
Deshabillés des habitudes, entrez
     Dm                     Bb6
Chez moi, sans pudeur en prélude
C       Badd11
Je veux l'aveu du sentiment
      D#5...
Trop grand...

D#5                                Bmaj7            Cm7
e|-----------------------------------------------------------------------|
B|-----4---0---4--------4---0------------4---0------------4---0----------|
G|---3---3---3---3----3---3---3---3----3---3---3---3----3---3---3---3----|
D|-1----------------1-----------1----------------------------------------|
A|-----------------------------------2-----------2----3-----------3------|
E|-----------------------------------------------------------------------|

VERSE3 (same pattern as verse 1&2)
Si j'avais su, j'aurais osé
Poser en poussière
Ces mots sur le front, des envolées
Je n'ai su que me taire
Si je pouvais, je leur dirais
A ceux qui m'ont fait n'être
Qu'un bris démoi, en demi-ton
Brûlant d'apparaître

PRE-CHORUS (same pattern as above)
Je me fais l'impolitesse
D'abuser de ma tendresse et de...

CHORUS2 (same as above, except last part, becomes a kind of interlude)
Montrer le masque sans étude, en traits
Deshabillés des habitudes, entrez
Chez moi, sans pudeur en prélude
Je veux l'aveu du sentiment
     Em
Trop grand...
       Fm/G#    Bb7   Bb7b9
Je vous aime

  Em                              Fm/G#
e|-7---------3-------3-------3--------------------4---4-------------|
B|-------5-------5-------5--------6-------6---------------6---------|
G|---0-0---0---0---0---0---0---0------5-------5---------------5-----|
D|----------------------------------6---6---6---6---6---6---6---6---|
A|------------------------------------------------------------------|
E|-0----------------------------------------------------------------|
   Bb7               Bb7b9
e|-----------------0---1------------|
B|---------0---3--------------------|
G|-----1-----1---1---1---1---1---1--|
D|---0---0--------------------------|
A|-1-----------------------1---1----|
E|----------------------------------|

CHORUS2 (same as chorus2 above)
Montrer le masque sans étude, en traits
Deshabillés des habitudes, entrez
Chez moi, sans pudeur en prélude
Je veux l'aveu du sentiment
Trop grand...
Je vous aime

OUTRO
D#5                Bmaj7            Cm7               Bmaj7
e|------------------------------------------------------6--|
B|-----4---0---4--------4---0---4--------4---0---4---------|
G|---3---3---3---3----3---3---3---3----3---3---3---3-------|
D|-1-------------------------------------------------------|
A|------------------2----------------3----------------2----|
E|---------------------------------------------------------|

D#5        Bmaj7         Cm7   Bmaj7
    Si j'osais je leur dirais: je...
==================================================================
Добавлено: 24.02.2012
Другие материалы по этой песне:
  • Аккорды и текст

Страница создана 24.02.2012
http://primanota.ru/elodie-frege/chez-moi-chords.htm
Привет, Гость.
Предлагаем пройти революционный курс по гитаре.
Подарок от PrimaNota.Ru, забирай!