PrimaNota.ru - самый крупный в мире бесплатный архив песенных текстов, аккордов, табулатур и нот


Ellis - Angel - аккорды и текст, видео

Регистрация Запомнить меня
Войти через:  Facebook Google Twitter Vk Yandex Mail.ru

Ellis - Angel - аккорды и текст, видео

Печатать
Просмотров: 149
Angel
Ellis
Song: Angel
Artist: Ellis (www.ellis-music.com)
Album: Everything That's Real

Tuning: DADGAD

This is what Ellis taught me after a concert (man, she's amazing!). 
There are three riffs total, one each for verse, chorus and bridge.  Just
repeat the riff until that section is over.  I've showed where the chord
changes are.  For the strumming pattern listen to the song.  When
anything other than open is in the bass, emphasize the lower strings. 
Otherwise, stick to the upper end of the chord.

/ = slide

Verse (Also intro/outro)
D:||-0--------------|-0-----0--------|-0--------------|-0-----0--------||
A:||-0--------------|-0-----7--------|-0--------------|-0-----0--------||
G:||-7--------------|-6-----6--------|-5--------------|-4-----0--------||
D:||-7--------------|-7-----7--------|-5--------------|-5-----5--------||
A:||-0--------------|-0-----0--------|-0--------------|-0-----5--------||
D:||-0--------------|-0-----0--------|-0--------------|-0-----0--------||
     ^ . ^ . ^ . ^ .  ^ . ^ . ^ . ^ .  ^ . ^ . ^ . ^ .  ^ . ^ . ^ . ^ .

Chorus
D:||-0--------------|-0--------------|-0-----------0--|-0--------------||
A:||-0--------------|-0--------------|-0-----------0--|-0--------------||
G:||-7--------------|-5--------------|-0-----------0--|-0--------------||
D:||-7--------------|-5--------------|-0-----------0--|-0--------------||
A:||-0--------------|-0--------------|-2-----------2/5|-5--------------||
D:||-0--------------|-0--------------|-2-----------2/5|-5--------------||
     ^ . ^ . ^ . ^ .  ^ . ^ . ^ . ^ .  ^ . ^ . ^ . ^ .  ^ . ^ . ^ . ^ .
     Angel comes down and ...

After first chorus, repeat Verse riff 2x, ending a measure early to start
the Bridge

Bridge
D:||-0-----------0--|-0--------------|-0--------------|-0--------------||
A:||-0-----------0--|-0--------------|-7--------------|-5--------------||
G:||-0-----------0--|-0--------------|-6--------------|-4--------------||
D:||-0-----------0--|-0--------------|-7--------------|-5--------------||
A:||-5-----------5/9|-9--------------|-0--------------|-0--------------||
D:||-5-----------5/9|-9--------------|-0--------------|-0--------------||
     ^ . ^ . ^ . ^ .  ^ . ^ . ^ . ^ .  ^ . ^ . ^ . ^ .  ^ . ^ . ^ . ^ .
  me cry...

     
Добавлено: 31.08.2013
Другие материалы по этой песне:
  • Аккорды и текст

Страница создана 31.08.2013
http://primanota.ru/ellis/angel-chords.htm
Привет, Гость.
Предлагаем пройти революционный курс по гитаре.
Подарок от PrimaNota.Ru, забирай!