PrimaNota.ru - самый крупный в мире бесплатный архив песенных текстов, аккордов, табулатур и нот


Elliott Smith - You Make It Seem Like Nothing - аккорды и текст, видео

Регистрация Запомнить меня
Войти через:  Facebook Google Twitter Vk Yandex Mail.ru

Elliott Smith - You Make It Seem Like Nothing - аккорды и текст, видео

Печатать
Просмотров: 157
Уроки эстрадного вокала в Санкт-Петербурге
You Make It Seem Like Nothing
Elliott Smith
-------------------------------------------------------------------------------
                 YOU MAKE IT SEEM LIKE NOTHING - Elliott Smith
-------------------------------------------------------------------------------
Tabbed by: Erik Silkensen
Email: erik.silkensen@gmail.com

Tuning: 1/2 step down

Played acoustic fingerstyle.

Chords:

           C          G          F          Dm         Am         E
eb|--------0----------3----------0----------1----------0----------0----------|
Bb|--------1----------0----------1----------3----------1----------0----------|
Gb|--------0----------0----------2----------2----------2----------1----------|
Db|--------2----------0----------3----------0----------2----------2----------|
Ab|--------3----------2----------3----------x----------0----------2----------|
Eb|--------0----------3----------x----------x----------x----------0----------|

  Intro: C G F C Dm Am F

  Verse:

 C                     Dm
I'm not used to coming through
 E                     F
I'm more accustomed to a falling out
 C                     Dm
I'm trying hard now as I can for you
 E                     F
Not to fuck up on some stupid doubt

 C                     Dm
I got your hopes set way up high
 E                     F
Way on up there where the air is thin
 C                     Dm
The limit's supposed to be the sky
 E                     F
I'm trying not to let you down again

  Chorus:

 C      G    F         C
It's starting to come to me
 Dm          Am     F
I didn't know about, I hadn't figured it out
     C      G    F         C       
But it's starting to come to me now
 Dm       Am     F
A little bit too late

  Verse:

 C                     Dm
I can't see anything you've done
 E                     F
Any reason for the trouble you've got
 C                     Dm
You haven't hurt anyone
 E                     F
Compared to most I'd say that's saying quite a lot

 C                     Dm
I can't help you when you're sad
 E                     F
That's a constant source of pain to me
 C                     Dm
Because I want to really bad
 E                     F
Even though you make it seem like nothing

  Chorus:

 C      G    F         C
It's starting to come to me
 Dm          Am     F
I didn't know about, I hadn't figured it out
     C      G    F         C       
But it's starting to come to me now
 Dm       Am     F
A little bit too late
Добавлено: 21.02.2012
Другие материалы по этой песне:
  • Аккорды и текст

Страница создана 21.02.2012
http://primanota.ru/elliott-smith/you-make-it-seem-like-nothing-chords.htm
Привет, Гость.
Предлагаем пройти революционный курс по гитаре.
Подарок от PrimaNota.Ru, забирай!