PrimaNota.ru - самый крупный в мире бесплатный архив песенных текстов, аккордов, табулатур и нот


Elliott Smith - The Assassin Or Kill Fuck - таба, видео

Регистрация Запомнить меня
Войти через:  Facebook Google Twitter Vk Yandex Mail.ru

Elliott Smith - The Assassin Or Kill Fuck - таба, видео

Печатать
Просмотров: 83
the assassin or (kill) fuck - instrumental by elliott smith
tab by alexander rex


standard tuning

           for piano play this keys
Am x02210  (e-a-c)
F  x33211  (c-f-a)
D  x00232  (d-f#-a)

play the run on
high notes on your piano:
(f#-a) (g#-h) (a-c)



Verse 1 piano

  Am(gtr.)  Am(piano) F    D  run     F
e|--------|---------|----|----5-7-8-|----|
H|--------|-1-------|----|-7--7-9-t-|-t--| t=10
G|----5---|-2-------|-2--|-7--------|-t--|
D|---7----|-2-------|-3--|-7--------|-t--|
A|--7-----|---------|-3--|-5--------|-8--|
E|-5------|---------|----|----------|----|

   Am    F     D  run     F
e|-----|-----|----5-7-8-|----|
H|-1---|-----|-7--7-9-t-|-t--|
G|-2---|-2-2-|-7--------|-t--|
D|-2---|-3---|-7--------|-t--|
A|-----|-3---|-5--------|-8--|
E|-----|-----|----------|----|

chorus guitar

   Am                F                 D                 F
E|-----------------|-----------------|-----------------|-----------------|
H|-----------------|-----------------|-----------------|-----------------|
G|-2-2---------0-2-|-----------------|-2-2-------------|---------------0-|
D|-2-2-0-0-2-2-----|-3-3-----3-3-3-2-|-0-0-0-0---------|-3-3-3---0-2-3---|
A|-----------------|-----3-3---------|-----0-0-2-2-3-4-|-3-3-3-4---------|
E|-----------------|-----------------|-----------------|-----------------|

   Am                F                 D                 F                 Am
E|-----------------|-----------------|-----------------|-----------------|---|
H|-----------------|-----------------|-----------------|-----------------|---|
G|-2-2---------0-2-|-----------------|-2-2-------------|---------------0-|-2-|
D|-2-2-0-0-2-2-----|-3-3-----3-3-3-2-|-0-0-0-0---------|-3-3-3---0-2-3---|---|
A|-----------------|-----3-3---------|-----0-0-2-2-3-4-|-3-3-3-4---------|---|
E|-----------------|-----------------|-----------------|-----------------|---|

verse 2 piano

   Am   F    D    F
e|----|----|----|----|
H|-1--|----|-7--|-t--|
G|-2--|-2--|-7--|-t--|
D|-2--|-3--|-7--|-t--|
A|----|-3--|-5--|-8--|
E|----|----|----|----|

   Am    F    D  run     F
e|-----|----|----5-7-8-|----|
H|-1---|----|-7--7-9-t-|-t--|
G|-2---|-2--|-7--------|-t--|
D|-2---|-3--|-7--------|-t--|
A|-----|-3--|-5--------|-8--|
E|-----|----|----------|----|

chorus guitar

Am F D F (same riff as chorus above)
Am F D F

verse 3 piano

   Am   F    D    F
e|----|----|----|----|
H|-1--|----|-7--|-t--|
G|-2--|-2--|-7--|-t--|
D|-2--|-3--|-7--|-t--|
A|----|-3--|-5--|-8--|
E|----|----|----|----|

   Am    F    D  run     F
e|-----|----|----5-7-8-|----|
H|-1---|----|-7--7-9-t-|-t--|
G|-2---|-2--|-7--------|-t--|
D|-2---|-3--|-7--------|-t--|
A|-----|-3--|-5--------|-8--|
E|-----|----|----------|----|

chorus guitar

Am F D F
Am F D F

solo over chorus chords
(i just tabbed out one guitar - there are several more)
play fast with a pick

   Am  F  D  F    Am  F  D  F
e|-------------|-------------|   w=12
H|-------------|-------------|   f=14
G|-w-w-w-w-w-w-|-w-w-w-w-w-w-|   i=15
D|-------------|-------------|
A|-------------|-------------|
E|-------------|-------------|

   Am                   F              D                  F
e|--------------------|--------------|------------------|-----------------------.. jam around
H|--------------------|--------------|------------------|-----------------------.. on that
G|-f--f--w--f-i-f-w-f-|-f-w--9--9--w-|-f--f--w--f-i-f-w-|-f--f--f--w--f-w-f-----.. shape till
D|--------------------|--------------|------------------|-----------------------.. end of song
A|--------------------|--------------|------------------|-------------------- .-..
E|--------------------|--------------|------------------|-----------------------..

Am F D F
Am F D F
Am F D F
Am


tab
v 3.0
Добавлено: 25.02.2014
Другие материалы по этой песне:
  • Аккорды и текст

Страница создана 25.02.2014
http://primanota.ru/elliott-smith/the-assassin-or-kill-fuck-chords.htm
Привет, Гость.
Предлагаем пройти революционный курс по гитаре.
Подарок от PrimaNota.Ru, забирай!