PrimaNota.ru - самый крупный в мире бесплатный архив песенных текстов, аккордов, табулатур и нот


Elliott Smith - Taking A Fall - текст песни, таба, видео

Регистрация Запомнить меня
Войти через:  Facebook Google Twitter Vk Yandex Mail.ru

Elliott Smith - Taking A Fall - текст песни, таба, видео

Печатать
Просмотров: 86
This is a tab based off his unreleased recording
http://www.youtube.com/watch?v=8_LCi9NtqvE

CAPO: 2nd

E|-3-------------------0-------------------|-0--2------------------0-------------------|
B|--------------0-------------------3------|----------------2--2----------------1------|
G|--------0--0-----------------------------|----------0--0----------------0--0---------|
D|-----2-----------2----------2--2-----2---|-------2-----------2-------2-----------2---|
A|-------------------------2---------------|-0---------------------3-------------------|
E|-0-------------------3-------------------|-------------------------------------------|


E|-0---------------------------------------|-0--2-----------3--------------------------|
B|--------------3--1---0------------0--0---|----------3--3----------------------3------|
G|--------0--0-------------------------0---|-------2-----------0-----------------------|
D|-----2----------------------0--0---------|-0----------------------------0--0-----0---|
A|-3-----------------------2---------------|---------------------------2---------------|
E|---------------------3-------------------|-----------------------3-------------------|


E|-3---------------------------------------|-3-------------------------|
B|--------------3-------------------3------|-3------------------3------|
G|--------0--0----------------0--0---------|--------------4--4---------|
D|-----0-----------0-------0-----------0---|-0---------4-----------4---|
A|-----------------------------------------|-------2-------------------|
E|-3-------------------3-------------------|-3-------------------------|

|-0-----------------------------------------|
|--------------3---------------------3------|
|--------4--4------------------4--4---------|
|-----4-----------4---------4-----------4---|
|-2-------------------0--2------------------|
|-------------------------------------------|



E|-0---------------------------------------|-3---------------------------------------|
B|--------------3--3----------------0------|--------------0-------------------0------|
G|--------4--4----------------0--0---------|--------0--0----------------0--0---------|
D|-----4-----------4-------0-----------0---|-----0-----------0-------0-----------0---|
A|-----------------------------------------|-----------------------------------------|
E|-2-------------------3-------------------|-3-------------------3-------------------|


E|-3-----------------------------------------|-0-----------------------------------------|
B|--------------0---------------------3------|--------------3---------------------3------|
G|--------0--0------------------4--4---------|--------4--4------------------4--4---------|
D|-----0-----------0---------4-----------4---|-----4-----------4---------4-----------4---|
A|---------------------0--2------------------|-2-------------------0--2------------------|
E|-3-----------------------------------------|-------------------------------------------|


E|-0---------------------------------------|-3---------------------------------------|
B|--------------3--3----------------0------|--------------0-------------------0------|
G|--------4--4----------------0--0---------|--------0--0----------------0--0---------|
D|-----4-----------4-------0-----------0---|-----0-----------0-------0-----------0---|
A|-----------------------------------------|-----------------------------------------|
E|-2-------------------3-------------------|-3-------------------3-------------------|


E|-3-------------------3-------------------|-0-------------------0--2-----------3------|
B|--------------0--0----------------1--1---|--------------3--3------------3--3---------|
G|--------0--0----------------0--0---------|-----------------0---------2-----------0---|
D|-----0-----------0-------2-----------2---|--------0--0---------0---------------------|
A|---------------------3-------------------|-----2-------------------------------------|
E|-3---------------------------------------|-3-----------------------------------------|


E|-------------------0-------------------|-0-------------------0--2-----------2------|
B|--------------------------------1--1---|--------------3--3------------3--3---------|
G|--------0--0--------------0--0---------|-----------------0---------2-----------2---|
D|-----0---------0-------2-----------2---|--------0--0---------0---------------------|
A|-------------------3-------------------|-----2-------------------------------------|
E|-3-------------------------------------|-3-----------------------------------------|


E|--------------2-------------------2------|-2------------2----------------------------|
B|--------3--3----------------3--3---------|--------3--3---------1--3-----------1------|
G|-----2-----------2-------2-----------2---|-----2-----------0------------2--2---------|
D|-0-------------------0-------------------|-0-------------------------2-----------2---|
A|-----------------------------------------|---------------------0---------------------|
E|-----------------------------------------|-------------------------------------------|


E|---------------------0-------------------|-----------------------------------------|
B|-1------------1-------------------1--1---|-3------------3------1------------1------|
G|--------2--2----------------2--2---------|--------0--0----------------0--0---------|
D|-----2-----------2-------2-----------0---|-----0-----------0-------2-----------2---|
A|-0-------------------0-------------------|-2-------------------3-------------------|
E|-----------------------------------------|-----------------------------------------|


E|-0---------------------------------------|-----------------0---3-------------------|
B|--------------3--1---0---------------0---|--------------0--0----------------1--1---|
G|--------0--0----------------------0------|--------2--2----------------0--0---------|
D|-----2----------------------0--0---------|-----1-------------------2-----------2---|
A|-3-----------------------2---------------|-2-------------------3-------------------|
E|---------------------3-------------------|-----------------------------------------|


E|-0-------------------0--2-----------3------|-------------------3-------------------|
B|--------------3--3------------3--3---------|--------------------------------1--1---|
G|-----------------0---------2-----------0---|--------0--0--------------0--0---------|
D|--------0--0---------0---------------------|-----0---------0-------2-----------2---|
A|-----2-------------------------------------|-------------------3-------------------|
E|-3-----------------------------------------|-3-------------------------------------|


E|-0-------------------0--2-----------3------|-------------------3-------------------|
B|--------------3--3------------3--3---------|--------------------------------0------|
G|-----------------0---------2-----------0---|--------0--0--------------0--0---------|
D|--------0--0---------0---------------------|-----0---------0-------2-----------2---|
A|-----2-------------------------------------|---------------------------------------|
E|-3-----------------------------------------|-3-----------------0-------------------|


E|-0-------------------0--2------------------|-0-------------------0-------------------|
B|--------------3---------------------2--2---|--------------1-------------------3--1---|
G|------------------------------0--0---------|--------0--0----------------0--0---------|
D|--------2--2-----2---------2-----------2---|-----2-----------2-------2---------------|
A|-----2---------------0---------------------|-3-------------------3-------------------|
E|-3-----------------------------------------|-----------------------------------------|


E|---------------------0--2-----------3------|---------------------3-------------------|
B|-0------------0--0------------3--3---------|--------------3-------------------3------|
G|-----------------0---------2-----------0---|--------0--0----------------0--0---------|
D|--------0--0---------0---------------------|-----0-----------0-------0-----------0---|
A|-----2-------------------------------------|-----------------------------------------|
E|-3-----------------------------------------|-3-------------------3-------------------|


E|---------------------3-------------------|---------------------0-------------------|
B|--------------3-------------------3--3---|--------------3-------------------3------|
G|--------0--0----------------0--0---------|--------4--4----------------4--4---------|
D|-----0-----------0-------0-----------0---|-----4-----------4-------4-----------4---|
A|-----------------------------------------|-2-------------------2-------------------|
E|-3-------------------3-------------------|-----------------------------------------|


E|-----------------------0-------------------|---------------------3-------------------|
B|----------------3-------------------3--3---|--------------0-------------------0------|
G|----------4--4----------------4--4---------|--------0--0----------------0--0---------|
D|-------4-----------4-------4-----------4---|-----0-----------0-------0-----------0---|
A|-0--2--------------------------------------|-----------------------------------------|
E|-----------------------2-------------------|-3-------------------3-------------------|


E|---------------------3-------------------|-----------------------0-------------------|
B|--------------0-------------------0------|----------------3-------------------3------|
G|--------0--0----------------0--0---------|----------4--4----------------4--4---------|
D|-----0-----------0-------0-----------0---|-------4-----------4-------4-----------4---|
A|-----------------------------------------|-0--2------------------2-------------------|
E|-3-------------------3-------------------|-------------------------------------------|


E|-----------------------0-------------------|---------------------3-------------------|
B|----------------3-------------------3--3---|--------------0-------------------0------|
G|----------4--4----------------4--4---------|--------0--0----------------0--0---------|
D|-------4-----------4-------4-----------4---|-----0-----------0-------0-----------0---|
A|-0--2--------------------------------------|-----------------------------------------|
E|-----------------------2-------------------|-3-------------------3-------------------|


E|---------------------3-------------------|-3-------------------0-------------------|
B|--------------0-------------------0--0---|--------------1--1----------------3--3---|
G|--------0--0----------------0--0---------|--------0--0-------------------------0---|
D|-----0-----------0-------0-----------0---|-----2-----------2----------0--0---------|
A|-----------------------------------------|-3-----------------------2---------------|
E|-3-------------------3-------------------|---------------------3-------------------|


E|-0--2-----------3------------------------|-0-------------------0-------------------|
B|----------3--3---------------------------|--------------1--1----------------3--3---|
G|-------2-----------0----------0--0-------|--------0--0-------------------------0---|
D|-0-------------------------0---------0---|-----2-----------2----------0--0---------|
A|-----------------------------------------|-3-----------------------2---------------|
E|-----------------------3-----------------|---------------------3-------------------|


E|-0--2-----------2-------------------2------|--------------2------2------------2------|
B|----------3--3----------------3--3---------|--------3--3----------------3--3---------|
G|-------2-----------2-------2-----------2---|-----2-----------2-------2-----------0---|
D|-0---------------------0-------------------|-0-------------------0-------------------|
A|-------------------------------------------|-----------------------------------------|
E|-------------------------------------------|-----------------------------------------|


E|-------------------------------------------|-0---------------------------------------|
B|-1--3-----------1------1------------1------|--------------1--1---3------------3------|
G|----------2--2----------------2--2---------|--------2--2----------------0--0---------|
D|-------2-----------2-------2-----------2---|-----2-----------0-------0-----------0---|
A|-0---------------------0-------------------|-0-------------------2-------------------|
E|-------------------------------------------|-----------------------------------------|


E|---------------------0-------------------|-------------------------------------0---|
B|-1------------1-------------------3--1---|-0---------------0----------------0--0---|
G|--------0--0----------------0--0---------|--------------0-------------2--2---------|
D|-----2-----------2-------2---------------|--------0--0-------------1---------------|
A|-3-------------------3-------------------|-----2---------------2-------------------|
E|-----------------------------------------|-3---------------------------------------|


E|-3-------------------0-------------------|-0--2-----------3------------------------|
B|--------------1--1----------------3--3---|----------3--3---------------------------|
G|--------0--0-------------------------0---|-------2-----------0----------0--0-------|
D|-----2-----------2----------0--0---------|-0-------------------------0---------0---|
A|-3-----------------------2---------------|-----------------------------------------|
E|---------------------3-------------------|-----------------------3-----------------|


E|-3-------------------0-------------------|-0--2-----------3------------------------|
B|--------------1--1----------------3--3---|----------3--3---------------------------|
G|--------0--0-------------------------0---|-------2-----------0----------0--0-------|
D|-----2-----------2----------0--0---------|-0-------------------------0---------0---|
A|-3-----------------------2---------------|-----------------------------------------|
E|---------------------3-------------------|-----------------------3-----------------|


E|-3-------------------0-------------------|-0--2------------------0-------------------|
B|--------------0-------------------3------|----------------2--2----------------1------|
G|--------0--0-----------------------------|----------0--0----------------0--0---------|
D|-----2-----------2----------2--2-----2---|-------2-----------2-------2-----------2---|
A|-------------------------2---------------|-0---------------------3-------------------|
E|-0-------------------3-------------------|-------------------------------------------|


E|-0---------------------------------------|-0--2-----------3--------------------------|
B|--------------3--1---0------------0--0---|----------3--3----------------------3------|
G|--------0--0-------------------------0---|-------2-----------0----------0--0---------|
D|-----2----------------------0--0---------|-0-------------------------0-----------0---|
A|-3-----------------------2---------------|-------------------------------------------|
E|---------------------3-------------------|-----------------------3-------------------|


E|-3-------------------0-------------------|-0--2-----------3--------------------------|
B|--------------1--1----------------0--0---|----------3--3----------------------0------|
G|--------0--0-------------------------0---|-------2-----------0----------0--0---------|
D|-----2-----------2----------0--0---------|-0-------------------------0-----------0---|
A|-3-----------------------2---------------|-------------------------------------------|
E|---------------------3-------------------|-----------------------3-------------------|


E|-3-------------------0-------------------|-0--2------------------0-------------------|
B|--------------0-------------------3------|----------------2--2----------------1------|
G|--------0--0-----------------------------|----------0--0----------------0--0---------|
D|-----2-----------2----------2--2-----2---|-------2-----------2-------2-----------2---|
A|-------------------------2---------------|-0---------------------3-------------------|
E|-0-------------------3-------------------|-------------------------------------------|


E|-0---------------------------------------|-0--2-----------3--------------------------|
B|--------------3--1---0------------0--0---|----------3--3----------------------0------|
G|--------0--0-------------------------0---|-------2-----------0----------0--0---------|
D|-----2----------------------0--0---------|-0-------------------------0-----------0---|
A|-3-----------------------2---------------|-------------------------------------------|
E|---------------------3-------------------|-----------------------3-------------------|


E|-3-------------------0-------------------|-0--2------------------0-------------------|
B|--------------0-------------------3------|----------------2--2----------------1------|
G|--------0--0-----------------------------|----------0--0----------------0--0---------|
D|-----2-----------2----------2--2-----2---|-------2-----------2-------2-----------2---|
A|-------------------------2---------------|-0---------------------3-------------------|
E|-0-------------------3-------------------|-------------------------------------------|


E|-0---------------------------------------|-0--2-----------3--------------------------|
B|--------------3--1---0------------0--0---|----------3--3----------------------0------|
G|--------0--0-------------------------0---|-------2-----------0----------0--0---------|
D|-----2----------------------0--0---------|-0-------------------------0-----------0---|
A|-3-----------------------2---------------|-------------------------------------------|
E|---------------------3-------------------|-----------------------3-------------------|


E|-3-------------------0-------------------|-0--2------------------0-------------------|
B|--------------0-------------------3------|----------------2--2----------------1------|
G|--------0--0-----------------------------|----------0--0----------------0--0---------|
D|-----2-----------2----------2--2-----2---|-------2-----------2-------2-----------2---|
A|-------------------------2---------------|-0---------------------3-------------------|
E|-0-------------------3-------------------|-------------------------------------------|


E|-0---------------------------------------|-0--2-----------3------3----------------------|
B|--------------3--1---0------------0--0---|----------3--3----------------------0---------|
G|--------0--0-------------------------0---|-------2-----------0----------0--0--0---------|
D|-----2----------------------0--0---------|-0-------------------------0----------------2-|
A|-3-----------------------2---------------|------------------------------------------2---|
E|---------------------3-------------------|-----------------------3---------------0------|


E|-3------------0------------|-2------------0-----|-0------|
B|-0------------0------------|-2------------1-----|-1------|
G|-0------------0----------0-|------------0-------|--------|
D|------------2----------2---|----------2---------|--------|
A|----------2---------0------|-------3------------|--------|
E|-------3-------------------|--------------------|--------|
Добавлено: 13.07.2013
Другие материалы по этой песне:

Страница создана 23.07.2012
http://primanota.ru/elliott-smith/taking-a-fall-chords.htm
Привет, Гость.
Предлагаем пройти революционный курс по гитаре.
Подарок от PrimaNota.Ru, забирай!