PrimaNota.ru - самый крупный в мире бесплатный архив песенных текстов, аккордов, табулатур и нот


Elliott Smith - Splitzville - аккорды и текст, видео

Регистрация Запомнить меня
Войти через:  Facebook Google Twitter Vk Yandex Mail.ru

Elliott Smith - Splitzville - аккорды и текст, видео

Печатать
Просмотров: 71
Splitzville
Elliott Smith
Splitzville by Elliott Smith
tab by Alexander Rex

dropped D tuning
DADGBe

t = 10
w = 12
H = 13

almost all G-chords are quickly slide up from F

G      555xxx  C  tttxxx
E      222xxx  Bb 888xxx
F      444xxx  A  777xxx
D      0577xx  Eb x688xx
outro chords:
Bb*    x88766  A7  x75655
D*     x57775  Eb* x68886
Gm*    x55333  Dm* xx3231
A7sus4 x02030



    riff
e|---------------------|
H|---------------------|
G|--0-0-0-0------------|
D|-/5-4-2-0------------|
A|----------2-3-2-0----|
D|------------------5--|

   G             G              G           G
e|---------------------------------------------------|
H|---------------------------------------------------|
G|---------------------------------------------------|
D|-5-----------4/5------------4/5---------4/5--------|
A|-5-----------4/5------------4/5---------4/5--------|
D|-5-----------4/5------------4/5---------4/5--------|
   Splitsville Quitsville You wanna go to Splitsville

   C                        G         G                  E
e|----------------------------------------------------------|
H|----------------------------------------------------------|
G|----------------------------------------------------------|
D|-/t-----------------------5-------4/5------------------2--|
A|-/t-----------------------5-------4/5------------------2--|
D|-/t-----------------------5-------4/5------------------2--|
   I got a full tank, letÂ's ride   And my my my my my my my

     G             G                     G                       G
e|------------------------------------------------------------------------|
H|------------------------------------------------------------------------|
G|------------------------------------------------------------------------|
D|-4/5-----------4/5-------------------4/5---------------------4/5--------|
A|-4/5-----------4/5-------------------4/5---------------------4/5--------|
D|-4/5-----------4/5-------------------4/5---------------------4/5--------|
   Splitsville I know the way And IÂ'll end up there one day in Splitsville

   C            G       G               E
e|-----------------------------------------|
H|-----------------------------------------|
G|-----------------------------------------|
D|-/t-----------5-----4/5---------------2--|
A|-/t-----------5-----4/5---------------2--|
D|-/t-----------5-----4/5---------------2--|
   On a natural high  my my my my my my my

     C           Bb
e|-------------------------|
H|-------------------------|
G|-------------------------|
D|---/t----------8---------|
A|---/t----------8---------|
D|---/t----------8---------|
   Be beautiful, never cry

riff

G                      G
Splitsville  You donÂ't need a name
     G            G
Everybody there behaves the same
C                                             G
YouÂ're not the only one who didnÂ't sleep last night
G                 E
my my my my my my my
     C       Bb             riff
Feel a-okay, quite all right

         F
Is there something youÂ've got waiting
E
Something you want too much
D                    Eb        Bb
Hurry up now, youÂ'll miss your bus
   A     G
To Splitsville
        D  Eb         Bb    D
And end up right back here

     G               G
Just screaming about Splitsville
G            G           G G G G G G G G
Splitsville, Splitsville


  solo
e|---------------------------------|
H|---------------------------------|
G|---------------------------------|
D|-/t---w-h-8---8-t-5--8-5-3--3-5--|
A|-/t---w-h-8---8-t-5--8-5-3--3-5--|
D|-/t---w-h-8---8-t-5--8-5-3--3-5--|

e|-----------------------------------------|
H|-----------------------------------------|
G|-----------------------------------------|
D|-/t---w-h-8---8-t-5--8-/t---w-h-8--8-t-5-|
A|-/t---w-h-8---8-t-5--8-/t---w-h-8--8-t-5-|
D|-/t---w-h-8---8-t-5--8-/t---w-h-8--8-t-5-|

      G                     G
DonÂ't dream of death in the other world
           G                G
ThereÂ's no diet bars and no pretty girls
   C                          G
No pusher man to fuck up your mind
G                       E
My, my, my, my, my, my, my
         C      Bb            riff
You feel a-okay all the time

F
Something youÂ've got waiting
E
Something you want too much
D                    Eb        Bb
Hurry up now, youÂ'll miss your bus
   A     G
To Splitsville
        D  Eb         Bb    D
And end up right back here

G F E D Eb Bb
A G D Eb Bb D
G F E D Eb Bb
A G D Eb Bb D
G F E D Eb Bb
A G D Eb Bb D G

here the accoustic guitar breaks in

Bb* A7 D* Eb*
Bb* A7 Gm* D* Eb*
Bb* D* Gm* Dm* A7sus4 D* Eb*
Bb* A7 Gm* D* Eb*
Bb* D* Gm* Dm* A7sus4 D* Eb*
Bb* A7 Gm* D* Eb*
Bb* D* Gm* Dm* A7sus4 D* Eb*
Bb* A7 Gm* D* Eb*
Bb* D* Gm* Dm* A7sus4 D* Eb*
Bb* A7 Gm* D* Eb*
Bb* D* Gm* Dm* ...

october 2013
Добавлено: 12.08.2013
Другие материалы по этой песне:
  • Аккорды и текст

Страница создана 12.08.2013
http://primanota.ru/elliott-smith/splitzville-chords.htm
Привет, Гость.
Предлагаем пройти революционный курс по гитаре.
Подарок от PrimaNota.Ru, забирай!