PrimaNota.ru - самый крупный в мире бесплатный архив песенных текстов, аккордов, табулатур и нот


Elliott Smith - Mr Goodmorning - таба, видео

Регистрация Запомнить меня
Войти через:  Facebook Google Twitter Vk Yandex Mail.ru

Elliott Smith - Mr Goodmorning - таба, видео

Печатать
Просмотров: 198
-------------------------------------------------------------------------------
                             Mr.Good Morning - Elliott Smith
-------------------------------------------------------------------------------
Tabbed by: Colin

Tuning: Standard

Transcribed from the instrumental version originally heard on the From a Basement on the
demos. The best way to play this is to form the chord shapes underneath the tabs and
as shown. For some reason I couldn't put the chords underneath part of the bridge, but
easy enough to figure out, simply Cminor and a bunch of power chords.

(Intro)
e|-0-----3-----------8--7--7--5--------8------8----7------11---------|
B|-1-----3-----------x--x--x--x--------8-----------8------12---------|
G|-0-----0-----------9--8--7--6--------9----9---9--7------11---------|
D|-2-----0-----------------------------------------------------------|
A|-3-----2-----------------------------------------------------------|
E|-3-----3-----------------------------------------------------------|
   C/G   G           C  B  Bm A        C           G      B

e|---------------------|
B|-1-1-1-1--2-2-2-2----|
G|-2-2-2-2--2-2-2-2----|
D|-2-2-2-2--2-2-2-2----|
A|-0-0-0-0--0-0-0-0----|
E|---------------------|
   Am       A

(Main Phrase)
e|------0--------------0-------------------------------------------------|
B|--------3---3---3------0-----------------------------------------------|
G|--------------2----------2-0---------4-2-0-----2-0------2-0------0-----|
D|----------0----------------------------------1--------2------------0---|
A|---2---------------3-----------3--------------------0----------3-------|
E|-0-------------------------------2-3-------2-----------------3---------|
   E7       D        C               G       B7/F#    A        C/G

e|--------4-2-------------0-------------------------------------------------|
B|----------------------3---0-------------------------------------7/8--7-5--|
G|---1/2-----------2----------2-0---------4-2-0------2--2-1-1-0---x-x--x-x--|
D|---------------2---0------------0----------------1----2-2-2-0---4/5--4-2--|
A|-------------0----------------------------------------2-2-2-0-------------|
E|-0---------------------------------2-3---------2------0-0-0---------------|
   E       D        C                  G         B7/F#  Esus2 E

(Post Phrase)
e|------------------------------------------------------------------------|
B|------------------------------------------------------------------------|
G|--5-5\-------5-4--7-6---5--5----7-7--0----5-5\---------5-4--7-6--5-5----|
D|--5-5\--5-5\-5-4--7-6---5--5----7-7--0----5-5\----5-5\-5-4--7-6--5-5----|
A|--3-3\--5-5\-3-2--5-4---3--3----5-5--0----3-3\----5-5\-3-2--5-4--3-3----|
E|--------3-3\--------------------------------------3-3\------------------|
    C5   G5  C5 B5 D5 C#5 C5     D5        C5     G5  C5 B5 D5 C#5 C5

(Main Phrase Variation)
e|------0-----------------------------------|
B|--------3---3---3--5-5b6r5-5--------------|
G|--------------2---------------------------|
D|----------0-------------------------------|
A|---2--------------------------------------|
E|-0----------------------------------------|
   E7       D

Main Phrase x1

(Bridge)
e|--------------------------------------------------------------------------|
B|--------------------------------------------------------------------------|
G|--5-5\-------5-4--7-6---5--5----7-7--0----5-5\---------5-4--7-6--5-5------|
D|--5-5\--5-5\-5-4--7-6---5--5----7-7--0----5-5\----5-5\-5-4--7-6--5-5-5-5--|
A|--3-3\--5-5\-3-2--5-4---3--3----5-5--0----3-3\----5-5\-3-2--5-4--3-3-5-5--|
E|--------3-3\--------------------------------------3-3\---------------3-3--|
   C5    G5  C5 B5 D5 C#5 C5      D5        C5     G5  C5 B5 D5 C#5 C5 G5

e|-----------3---------7\5--------------------------------------------------------|
B|-4---------4--------------------------------------------------------------------|
G|-5-------5------5/7--------------------------------------------------9-9-9-9--7-|
D|-5-----5------------------------7-7-7-7--7-7-7-7--3-3-3-3--3-3-3-3---9-9-9-9--7-|
A|-3---3--------------------------7-7-7-7--7-7-7-7--3-3-3-3--3-3-3-3---7-7-7-7--5-|
E|--------------------------------5-5-5-5--5-5-5-5--1-1-1-1--1-1-1-1--------------|

---------------------------|
---------------------------|
7-7-7--5-5-5-5--4-4-4-4----|
7-7-7--5-5-5-5--4-4-4-4----|
5-5-5--3-3-3-3--2-2-2-2----|
---------------------------|

e|-----------------------|
B|-----------------------|
G|--5-5\-------5-4-7-----|
D|--5-5\--5-5--5-4-7-7---|
A|--3-3\--5-5--3-2-5-7---|
E|--------3-3--------5---|

Main Phrase x2

Post Phrase x3

(Outro)
e|-0-----3-----------8--7--7--5--------8------8----7------11---------|
B|-1-----3-----------x--x--x--x--------8-----------8------12---------|
G|-0-----0-----------9--8--7--6--------9----9---9--7------11---------|
D|-2-----0-----------------------------------------------------------|
A|-3-----2-----------------------------------------------------------|
E|-3-----3-----------------------------------------------------------|
   C/G   G          C  B   Bm A        C           G      B

e|-----------------|
B|-----------------|
G|--7p5------7p6---|
D|------7--7-------|
A|-----------------|
E|-----------------|


| /  slide up
| \  slide down
| h  hammer-on
| p  pull-off
| ~  vibrato
| +  harmonic
| x  Mute note
Добавлено: 11.04.2012
Другие материалы по этой песне:

Страница создана 11.04.2012
http://primanota.ru/elliott-smith/mr-goodmorning-chords.htm
Привет, Гость.
Предлагаем пройти революционный курс по гитаре.
Подарок от PrimaNota.Ru, забирай!