PrimaNota.ru - самый крупный в мире бесплатный архив песенных текстов, аккордов, табулатур и нот


Elliott Smith - I Dont Think Im Ever Gonna Figure It Out - таба, видео

Регистрация Запомнить меня
Войти через:  Facebook Google Twitter Vk Yandex Mail.ru

Elliott Smith - I Dont Think Im Ever Gonna Figure It Out - таба, видео

Печатать
Просмотров: 137
I Don't Think I'm Ever Gonna Figure It Out
Capo 3rd

verse:

E ---------3---------3------------------|I
B ----------------1---------------------|I
G --------------------------------------|I
D ---------2---------2------------------|I
A ----3--------3------------------------|I
E -------------------------I    repeat--| 8x

F      X X 3 2 1 1
C/E    X X 2 0 1 0
?      X X 0 0 1 0
C      X 3 2 0 1 0

       G                               C...
E ----X-----3-------------------------0--------|I
B ----3h5-----5--3--3b5r3--0----1--------------|I
G ----0------------0------------------0--------|I
D ----0------------0------------------2--------|I
A ----X--------------------------------3-------|I
E ----3------------3---------------------------|I    play that G with your
thumb on the low E string

bridge:

F               1 3 3 2 1 1
C               X 3 2 0 1 0
Am              X 0 2 2 1 0
F# Dsus2        2 X 0 2 3 X

back to verse.....

not quite positive about the rest

fill at end of solo part:

E ---0------------------0-----|I
B ---1------------------1-----|I
G ---0-----------0-----0------|I
D ---2--2h3h4-------2---------|I
A -3-----------------3--------|I
E ----------------------------|I

back to bridge
verse

end part:
G     3 X 0 0 3 3  (same plucking as top part)
C     X 3 2 0 1 0
B?    X 2 0 0 1 0
G
C
E/C
G
C
F
C

im pretty sure about this. but not positive on that middle solo part so ill
let someone else
figure it out.
Добавлено: 14.07.2012
Другие материалы по этой песне:
  • Аккорды и текст

Страница создана 11.03.2012
http://primanota.ru/elliott-smith/i-dont-think-im-ever-gonna-figure-it-out-chords.htm
Привет, Гость.
Предлагаем пройти революционный курс по гитаре.
Подарок от PrimaNota.Ru, забирай!