PrimaNota.ru - самый крупный в мире бесплатный архив песенных текстов, аккордов, табулатур и нот


Elliott Smith - Condor Avenue - таба, видео

Регистрация Запомнить меня
Войти через:  Facebook Google Twitter Vk Yandex Mail.ru

Elliott Smith - Condor Avenue - таба, видео

Печатать
Просмотров: 156
Condor Avenue- Elliott Smith

Standard Tuning, Capo 1st Fret

[Intro]
e------------------------|
B------------------------|
G------------------------|
D-5--5--5--5--4--4--3--3-|
A------------------------|
E-3--3--3--3--2--2--1--1-|

[Verse]
    [   E   ]   [   D/F#  ]   [          G          ] [            C              ]
e----0--0-0-0-----0--0-0-0----------------------------------------------------------|
B----0--0-0-0-----0--0-0-0---0--0----0---0---0--0-0-0--------0--------------1-------|
G----1--1-1-1-1---2--2-2-2-4----0------------0--0-0-0----------0---0----------0---0-|
D----2--2-2-2-----0--0-0-0------0------------0--0-0-0------2-----2--------2-----2---|
A----2--2-2-2-----0--0-0-0------2------------2--2-2-2--0h3------------0h3-----------|
E-0--0--0-0-0--2--2--2-2-2--3-3-3-(3)--3---3-3--3-3-3-------------------------------|

   [D]                   [   C    ][    Am   ] [ Bm ][F#]Am EmC
e---------------00----------------------------------------------------|play this
B---3-----------00--------0--1-1-1--1-1-1-3-1--3-33------(1)-0--1-----|once, then
G---2--2p0---0--00--------0--0-0-0--2-2-2-2-2--4-44--3-33-2-(0)(0)----|when words
D-0---------4--2--4-p0----2--2-2-2--2-2-2-2-2--4-44--4-44(2)(2)(2)----|start play
A----------------------3--3--3-3-3--0-0-0-0-0--2-22--4-44-0--2--3-----|twice.
E----------------------------------------------------2-22-------------|
  \for this part you  /
  /can play this too  \
e-----------------3----------------|
B---3------------(3)---------------|
G---2-2p0--0----0--4-p0------------|
D-0-------4--2h4-------------------|
A-----------(^ or you can play 0h2)|
E----------------------------------|

[Chorus]
    [   E    ]   [    G   ]   [         Am          ]
e----0--0-0-0-----x--x-x-x-----0--0-0-0--0(0h3p0)0-0-|
B----0--0-0-0-----0--0-0-0-----1--1-1-1--1-----1-1-1-|
G----1--1-1-1-----0--0-0-0-----2--2-2-2--2-----2-2-2-|
D----2--2-2-2-----0--0-0-0-----2--2-2-2--2-----2-2-2-| Play this 3 times and
A----2--2-2-2-----2--2-2-2--0--0--0-0-0--0-----0-0-0-|      then play:
E-0--0--0-0-0--3--3--3-3-3---------------------------|

    [    E   ]   [    D   ]   [      C      ] [C/B][    C   ][ C/G]
e----0--0-0-0-----2--2-2-2-----------------------------------------------|
B----0--0-0-0-----3--3-3-3-----1--1-1-1---11---11---1--1-1-1--1-11-------|then
G----1--1-1-1-----2--2-2-2-----0--0-0-0---00---00---0--0-0-0--0-00-------|go
D----2--2-2-2--0--0--0-0-0-----2--2-2-2---22--------2--2-2-2--2-22-------|back
A----2--2-2-2---------------3--3--3-3-3-3-33-2-22-3-3--3-3-3-------------|to
E-0--0--0-0-0-------------------------------------------------3-33-2-1-0-|verse

[End On:]
 [E]
e-0-|
B-0-|
G-1-|
D-2-|
A-2-|
E-0-|

You can figure out when to play what. Thats basically all there is to the song.
Добавлено: 22.06.2012
Другие материалы по этой песне:
  • Аккорды и текст

Страница создана 22.06.2012
http://primanota.ru/elliott-smith/condor-avenue-chords.htm
Привет, Гость.
Предлагаем пройти революционный курс по гитаре.
Подарок от PrimaNota.Ru, забирай!