PrimaNota.ru - самый крупный в мире бесплатный архив песенных текстов, аккордов, табулатур и нот


Elliott Murphy - Marilyn - аккорды и текст, видео

Регистрация Запомнить меня
Войти через:  Facebook Google Twitter Vk Yandex Mail.ru

Elliott Murphy - Marilyn - аккорды и текст, видео

Печатать
Просмотров: 37
Новый альбом группы 'Черный Кузнец' по культовому сериалу 'Сверхъестественное'!
Marilyn
Elliott Murphy
Song:           Marilyn
Artist:         Elliott Murphy
Album:          Aquashow (1973
Tabbed by:      Javier de la Fuente

[Intro]
e|-------------------------------------||
B|-------------------------------------||
G|-------4----4----4-----4-------------||
D|-----2----1--------------------------|| x2
A|---------------5-----4---------------||
D|-------------------------------------||

[Verse]
E                B
I guess you'd say she had what it took
Bm                        C#
To make most of us take a second look
E                  B
She stole our eyes but not our hearts
Bm                        C#
And all the time it tore her apart

[Chorus]
C             D                E
Don't you know she died for our sins
C              D        E
Marilyn Monroe died for us

[Verse]
E          B
What a body to make us dream
Bm                              C#
Our thoughts were dirty though she was clean
E                       B
On screen we'd watch her watch her tantalize
Bm                        C#
And with our own we would fantasize

[Chorus]
C             D                E
Don't you know she died for our sins
C              D        E
Marilyn Monroe died for us

[Interlude]
E  B  Bm  C#    E  B  Bm  C#    C  D  E   C  D  E   

e|-------------------------------------||
B|-------------------------------------||
G|-------4----4----4-----4-------------||
D|-----2----1--------------------------||
A|---------------5-----4---------------||
D|-------------------------------------||

[Verse]
E       B       Bm            C#
Marilyn Marilyn I didn't mean to do you in
E       B       Bm                  C#
Marilyn Marilyn now its too late to start again

[Chorus]
C             D                E
Don't you know she died for our sins
C              D        E
Marilyn Monroe died for us

e|-------------------------------------||
B|-------------------------------------||
G|-------4----4----4-----4-------------||
D|-----2----1--------------------------||
A|---------------5-----4---------------||
D|-------------------------------------||
Добавлено: 21.03.2018
Другие материалы по этой песне:
  • Аккорды и текст

Страница создана 21.03.2018
http://primanota.ru/elliott-murphy/marilyn-chords.htm
Привет, Гость.
Предлагаем пройти революционный курс по гитаре.
Подарок от PrimaNota.Ru, забирай!