PrimaNota.ru - самый крупный в мире бесплатный архив песенных текстов, аккордов, табулатур и нот


Elliott Brood - Mission Bell - аккорды и текст, видео

Регистрация Запомнить меня
Войти через:  Facebook Google Twitter Vk Yandex Mail.ru

Elliott Brood - Mission Bell - аккорды и текст, видео

Печатать
Просмотров: 79
Mission Bell
Elliott Brood
-------------------------------------------------------------------------------
                             Mission Bell - Elliott Brood
-------------------------------------------------------------------------------
Tabbed by: gdelorey

Tuning: Standard

Not too sure of the lyrics but the intro and chords go something like this I think, first time 
posting on here. Enjoy! 



Intro (synth and horns in background)

    Am           C                 Am            C
e|---0-----------0-----------------0-------------0-------------------|
B|---1-----------1-----------------1-------------1-------------------|
G|---2-----------0------------0----2-------------0------------0------|
D|---2-----------2--------0h2---2--2-------------2-------0h2-----2---|   
A|---0-----0-0h2-3-----------------0-----0--0h2 -3-------------------|
E|-------------------------------------------------------------------|

    Am           C                 Am            C
e|---0-----------0-----------------0-------------0----|
B|---1-----------1-----------------1-------------1----|
G|---2-----------0------------0----2-------------0----|
D|---2-----------2--------0h2---2--2-------------2----|   
A|---0-----0-0h2-3-----------------0-----0--0h2 -3----|
E|----------------------------------------------------|

End on C


(*F# - walk up to G play Em then hit the F# on the low E string on your way to G)



Drums start

Em *F# G x2


Verse (Same progression x4)
Em                             *F#         G
Say it's hard to make your way through the night...

Chorus

Do you realize...
Bm C Am C x1

Fill
Em *F# G x2

Verse

And who'd thought you'd....
Em *F# G x4

Chorus

Do you realize...
Bm C Am C x1


Bridge (Solo)

G C Am C x2
Em D C G
Em D C (Hold C)

Chorus

Do you realize...
Bm C Am C x2 (Fade to outro)

Outro 

Em *F# to G C (walk down the A string to) Am (x4)
C walk down to Am (x2)

End

A very good song by a great Canadian band!
Добавлено: 17.07.2015
Другие материалы по этой песне:
  • Аккорды и текст

Страница создана 17.07.2015
http://primanota.ru/elliott-brood/mission-bell-chords.htm
Привет, Гость.
Предлагаем пройти революционный курс по гитаре.
Подарок от PrimaNota.Ru, забирай!