PrimaNota.ru - самый крупный в мире бесплатный архив песенных текстов, аккордов, табулатур и нот


Elliot Minor - Propane Nightmares - таба, видео

Регистрация Запомнить меня
Войти через:  Facebook Google Twitter Vk Yandex Mail.ru

Elliot Minor - Propane Nightmares - таба, видео

Печатать
Просмотров: 113
Уроки эстрадного вокала в Санкт-Петербурге
"Propane Nightmares (Acoustic)" by Elliot Minor

Tuning: C# (D#-G#-C#-F#-A#-D#)

Gtr.1 - Alex Davies
Gtr.2 - Ed Minton

LINK TO VIDEO: http://www.youtube.com/watch?v=hVtKsbn5w98
NOTE: I haven't tabbed out the rhythm, merely what chords/notes to play. I've added the 
to the youtube video for help in timing and rhythm. Also, I have a feeling that Ed's 
are slightly incorrect and I appolgise for the messiness - first tab syndrome.

INTRO/VERSE 1

Gtr.1
D#|--------------0-------0--------|
A#|--------------0-------0--------|
F#|---8-9-4-8----1-4-8---1-4-8----|
C#|-6-8-9-4-8-x2-2-4-8-6-2-4-8-x2-|
G#|-6-6-7-2-6----2-2-6-6-2-2-6----|
D#|-4------------0-----4-0--------|

Gtr.2
D#|-4-6-7-2-6----0-2-6-4-0-2-6----|
A#|-4-8-9-4-8----0-4-8-4-0-4-8----|
F#|-4-8-9-4-8----1-4-8-4-1-4-8----|
C#|-6-8-9-4-8-x2-2-4-8-6-2-4-8-x2-|
G#|-6-6-7-2-6----2-2-6-6-2-2-6----|
D#|-4-6-7-2-6----0-2-6-4-0-2-6----|

RIFF

Gtr.1
D#|------------------------------------|
A#|------------------------------------|
F#|-----use the youtube----------------|
C#|-6---link for the rhythm------------|
G#|-6-------------------------5-4------|
D#|-4-----------------------4-----7----|

Gtr.2
D#|------------------------------------|
A#|------------------------------------|
F#|------------------------------------|
C#|------------------------------------|
G#|-----------9-8-------------5-4------|
D#|-4-6-7-4-7-----4-6-7-4-7-4-----7----|

Gtr.1
D#|--------------------------------------------|
A#|--------------------------------------------|
F#|----------------8-8-88-8-8-12-12-1212-12-12-| *see previous comment
C#|-6--*---------------------------------------|
G#|-6--------------6-6-66-6-6-8--10-1010-10-10-|
D#|-4------------------------------------------|

Gtr.2
D#|------------------------------------|
A#|------------------------------------|
F#|----------------4-4-44-4-8-8-88-8-8-|
C#|------------------------------------|
G#|-----------9-8--2-2-22-2-6-6-66-6-6-|
D#|-4-6-7-4-7--------------------------|

CHORUS 1

Gtr.1
D#|--------------|
A#|--------------|
F#|--------4-8---|
C#|-6-4----4-8---| x2
G#|-6-4-x3-2-6---|
D#|-4-2----------|

Gtr.2
D#|-4-2----2-6---|
A#|-4-2----4-8---|
F#|-4-3----4-8---|
C#|-6-4----4-8---| x2
G#|-6-4-x3-2-6---|
D#|-4-2----2-6---|

Gtr.1
D#|---0----------|
A#|---0----------|
F#|---1-4-8------|
C#|-6-2-4-8------| x2
G#|-6-2-2-6------|
D#|-4-0----------|

Gtr.2
D#|-4-0-2-6------|
A#|-4-0-4-8------|
F#|-4-1-4-8------|
C#|-6-2-4-8------| x2
G#|-6-2-2-6------|
D#|-4-0-2-6------|

RIFF

Gtr.1
D#|------------------------------------|
A#|------------------------------------|
F#|-----use the youtube----------------|
C#|-6---link for the rhythm------------|
G#|-6-------------------------5-4------|
D#|-4-----------------------4-----7----|

Gtr.2
D#|------------------------------------|
A#|------------------------------------|
F#|------------------------------------|
C#|------------------------------------|
G#|-----------9-8-------------5-4------|
D#|-4-6-7-4-7-----4-6-7-4-7-4-----7----|

Gtr.1
D#|--------------------------------------------|
A#|--------------------------------------------|
F#|----------------8-8-88-8-8-12-12-1212-12-12-| *see previous comment
C#|-6--*---------------------------------------|
G#|-6--------------6-6-66-6-6-8--10-1010-10-10-|
D#|-4------------------------------------------|

Gtr.2
D#|------------------------------------|
A#|------------------------------------|
F#|----------------4-4-44-4-8-8-88-8-8-|
C#|------------------------------------|
G#|-----------9-8--2-2-22-2-6-6-66-6-6-|
D#|-4-6-7-4-7--------------------------|

CHORUS 2

Gtr.1
D#|--------------|
A#|--------------|
F#|--------4-8---|
C#|-6-4----4-8---| x2
G#|-6-4-x3-2-6---|
D#|-4-2----------|

Gtr.2
D#|-4-2----2-6---|
A#|-4-2----4-8---|
F#|-4-3----4-8---|
C#|-6-4----4-8---| x2
G#|-6-4-x3-2-6---|
D#|-4-2----2-6---|

Gtr.1
D#|---0----------|
A#|---0----------|
F#|---1-4-8------|
C#|-6-2-4-8------| x2
G#|-6-2-2-6------|
D#|-4-0----------|

Gtr.2
D#|-4-0-2-6------|
A#|-4-0-4-8------|
F#|-4-1-4-8------|
C#|-6-2-4-8------| x2
G#|-6-2-2-6------|
D#|-4-0-2-6------|

BRIDGE

Gtr.1
D#|-0---------------2-----------------4--------------------------------------|
A#|-0---------------2-----------------4-let-chords---------------------------|
F#|-1---------------3-----------------4---ring-----4-6-4-3-------3s4-3-4s6-5-|
C#|-2---------------4-----------------6--------------------6-4-6-------------|
G#|-2---------------4-----------------6--------------------------------------|
D#|-0---------------2-----------------4--------------------------------------|

Gtr.2
D#|---------0---------------2----------------4---------------4-------|
A#|-----------0---0-----------2---2------------4---------------4-----|
F#|-----1-------1-------3-------3--------4-------4-------4-------4---|
C#|-------2---------------4----------------6-------6-------6-------6-|
G#|---2---------------4----------------6----------------6------------|
D#|-0---------------2----------------4----------------4--------------|

Gtr.2
D#|---------0---------------2----------------4---|
A#|-----------0---0-----------2---2--------------|
F#|-----1-------1-------3-------3--------4-------|
C#|-------2---------------4----------------6-----|
G#|---2---------------4----------------6---------|
D#|-0---------------2----------------4-----------|

OUTRO VERSE

Gtr.1&2
D#|---------------|
A#|---------------|
F#|---------------|
C#|---4-8-----4-8-|
G#|-2-2-6-6-2-2-6-|
D#|-0-----4-0-----|
    . . . . . . .

Gtr.1
D#|-0--------------|
A#|-0--------------|
F#|-1-4-8------4-8-|
C#|-2-4-8-6--2-4-8-|
G#|-2-2-6-6--2-2-6-|
D#|-0-----4--0-----|

Gtr.2
D#|-0-2-6-4--0-2-6-|
A#|-0-2-8-4--0-4-8-|
F#|-1-4-8-4--1-4-8-|
C#|-2-4-8-6--2-4-8-|
G#|-2-2-6-6--2-2-6-|
D#|-0-2-6-4--0-2-6-|

OUTRO

Gtr.1
D#|------------------------------------|
A#|------------------------------------|
F#|-----use the youtube----------------|
C#|-6---link for the rhythm------------|
G#|-6----------------------------------|
D#|-4----------------------------------|
                                              x2
Gtr.2
D#|------------------------------------|
A#|------------------------------------|
F#|------------------------------------|
C#|------------------------------------|
G#|-----------9-8-------------5-4------|
D#|-4-6-7-4-7-----4-6-7-4-7-4-----7----|

Gtr.1&2

D#|------------------------------------|
A#|------------------------------------|
F#|------------------------------------|
C#|------------------------------------| x2
G#|-----------9-8-------------5-4------|
D#|-4-6-7-4-7-----4-6-7-4-7-4-----7----|

Gtr.2
D#|------------------------------------|
A#|------------------------------------|
F#|-----use the youtube----------------|
C#|-6---link for the rhythm----------6-| x2
G#|-6-------------------------5-4----6-|
D#|-4-----------------------4-----7--4-|
Добавлено: 12.08.2013
Другие материалы по этой песне:
  • Аккорды и текст

Страница создана 12.08.2013
http://primanota.ru/elliot-minor/propane-nightmares-chords.htm
Привет, Гость.
Предлагаем пройти революционный курс по гитаре.
Подарок от PrimaNota.Ru, забирай!