PrimaNota.ru - самый крупный в мире бесплатный архив песенных текстов, аккордов, табулатур и нот


Elliot Minor - Now Shes Gone - таба, видео

Регистрация Запомнить меня
Войти через:  Facebook Google Twitter Vk Yandex Mail.ru

Elliot Minor - Now Shes Gone - таба, видео

Печатать
Просмотров: 81
-------------------------------------------------------------------------------
			Now She's Gone - Elliot Minor
-------------------------------------------------------------------------------
Tabbed by: Ailsa C
Email: ailsafern@hotmail.co.uk

Tuning: Standard


Intro:

e|-------------------------8------8-----------10-----10----10-----|
B|------8-----8---------------------------------------------------|
G|---99----999---9------88-----888---8-----77-----777----777------|
D|----------------------------------------------------------------|
A|----------------------------------------------------------------|
E|----------------------------------------------------------------|

e|------10--------------------------------------------------------|
B|----------------------------------------------------------------|
G|--777-----7-----------------------------------------------------|
D|----------------------------------------------------------------|
A|----------------------------------------------------------------|
E|----------------------------------------------------------------|

e|----------------------------------------------------------------|
B|----------------------------------------------------------------|
G|--9----------------12-------------------------------------------|
D|--9-(x8)--10-(x8)--12-(x8)--12-(x8)--------(x2 THEN) -5---------|
A|--7-------10-------10-------12------------------------5---------|
E|-----------8----------------10------------------------3---------|


(I don't think there's any guitar in the first verse or bridge...)


Chorus:

e|-----------------------------------------------------------------|
B|-----------------------------------------------------------------|
G|--9------------------------7-------------------------------------|
D|--9-(x8)—-10-(x8)—-5-(x8)—-7-(x8)--------------------------------|(x2)
A|--7-------10-------5-------5-------------------------------------|
E|----------8--------3---------------------------------------------|
  These were the...

e|----------------------------------------------------------------|
B|----------------------------------------------------------------|
G|---9------5-------4-----------------------7---------------------|
D|---9(x8)—-5-(x8)--4-(x8)—-7-(x8)--5-(x8)--7-(x8)--5-------------|
A|---7------3-------2-------7-------5-------5-------5-------------|
E|--------------------------5-------3---------------3-------------|
  It's harder to see...


Then an acoustic bit:
e|----3-----------------------------------------------------------|
B|----3-----------------------------------------------------------|
G|----4-----------------------------------------------------------|
D|----5-----------------------------------------------------------|
A|----5-----------------------------------------------------------|
E|----3-----------------------------------------------------------|


Verse 2:

e|----------------------------------------------------------------|
B|----------------------------------------------------------------|
G|----------------------------------------------------------------|
D|----9---7---5---3---2-1-0-5-5---7-------------------------------|
A|----------------------------------------------------------------|
E|----------------------------------------------------------------|
  This place is real...

e|----------------------------------------------------------------|
B|----------------------------------------------------------------|
G|---------7---8-9---9-7------5--4--3-----------7-----------------|
D|---5---5-7---8-9---9-7---7--5--4--3--7--------7-----------------|
A|---5---5-5---6-7---7-5---7--3--2--1--7--------5-----------------|
E|---3---3-----------------5-----------5—--7h8--------------------|
  If everything...


Bridge:

e|----------------------------------------------------------------|
B|----------------------------------------------------------------|
G|---5--4------5--7-------5--4-----2--5----7----------------------|
D|---5--4—-2~--5--5—-5~---5--4--2--2--5----7----------------------|
A|---3--2—-2~--3--5—-5~---3--2--2--0--3----5----------------------|
E|---------0~--------3~---------0---------------------------------|
  Now she's...           No matter...


Then: CHORUS


Then:

e|----------------------------------------------------------------|
B|----------------------------------------------------------------|
G|-------9-7---------5-55-------9--7-------5--7--4—-9—-5~--4~-----|
D|---7---7-7---5-55--5-55---7---9--7--5----5—-7—-4—-9—-5~--4~-----|
A|---7---7-5---5-55--3-33---7---7--5--5----3--5—-2--7—-3~--2~-----|
E|---5---------3-33---------5---------3---------------------------|
  Stop breathing the air outside...

Then Chorus:

e|-----------------------------------------------------------------|
B|-----------------------------------------------------------------|
G|--9------------------------7-------------------------------------|
D|--9-(x8)—-10-(x8)—-5-(x8)—-7-(x8)--------------------------------|(x2)
A|--7-------10-------5-------5-------------------------------------|
E|----------8--------3---------------------------------------------|
  These were the...


e|-----------------------------------------------------------------|
B|-----------------------------------------------------------------|
G|---9------5-------4-----------------------7----------------------|
D|---9(x8)—-5-(x8)--4-(x8)—-7-(x8)--5-(x8)--7-(x8)-----------------|
A|---7------3-------2-------7-------5-------5----------------------|
E|--------------------------5-------3------------------------------|
  It's harder to see...

e|------------------------------------------------------------------|
B|------------------------------------------------------------------|
G|--9------------------------7--------------------------------------|
D|--9-(x8)—-10-(x8)—-5-(x8)—-7-(x8)---------------------------------|(x2)
A|--7-------10-------5-------5--------------------------------------|
E|----------8--------3----------------------------------------------|
  These were the days...


e|-----------------------------------------------------------------|
B|--------------------------------------------—--------------------|
G|---9------5-------4-----------------------7~--------2~-----------|
D|---9(x8)—-5-(x8)--4--————-7-—————-5~------7~---2~---2~-----------|
A|---7------3-------2-------7-------5~------5~---2~---0~-----------|
E|--------------------------5-------3~-----------0~----------------|
  It's harder to see...


e|-----------------------------------------------------------------|
B|--------------------------------------------—--------------------|
G|---5~---7~-------------------------------------------------------|
D|---5~---7~---5~~-------------------------------------------------|
A|---3~---5~---5~~-------------------------------------------------|
E|-------------3~~-------------------------------------------------|
   Now nothing's the same now she's gone.

It sounds fine when I play it - please let me know if it's alright =D
You should probably listen to the song before you play it =P
Добавлено: 19.08.2013
Другие материалы по этой песне:
  • Аккорды и текст

Страница создана 19.08.2013
http://primanota.ru/elliot-minor/now-shes-gone-chords.htm
Привет, Гость.
Предлагаем пройти революционный курс по гитаре.
Подарок от PrimaNota.Ru, забирай!