PrimaNota.ru - самый крупный в мире бесплатный архив песенных текстов, аккордов, табулатур и нот


Elliot Minor - I Believe - аккорды и текст, таба, видео

Регистрация Запомнить меня
Войти через:  Facebook Google Twitter Vk Yandex Mail.ru

Elliot Minor - I Believe - аккорды и текст, таба, видео

Печатать
Просмотров: 184
Уроки эстрадного вокала в Санкт-Петербурге
I Believe
Elliot Minor
Tabbed by:Muhaimin93
Tuning:Standard

I think this is quite close.. Hope you like it :)


   A#   F#   D#   G#   F*   C   F   F#*   C#  
e|---------------------------------------------------------------------------|
B|---------------------------------------------------------------------------|
G|-----------8---------10-----------11---------------------------------------|
D|-8----4----8----6----10---10--3---11----11---------------------------------|
A|-8----4----6----6----8----10--3---9-----11---------------------------------|
E|-6----2---------4---------8---1---------9----------------------------------|

Intro: A# A# F# F# D# D# A# A# X2

A#                  A#    F#                   F#
It shimmers in the dark, yet this one's not a trophy,
G#                       G#
It's worth so much more, there's no glorious flaw, 
F*                      C
It's the best that I've ever seen. 
A#            A#   F#                        F#
Lovers cannot lie, when it gets you feeling alive ,
G#                      G#
Brings your colour out, spreading word about, 
F*                     C
That I'll kill before I try. 

F#                   G#           A#
So please hand me my cover and my soul,
F#              G#             F
I'll throw away every piece I own. 

A#       A#         F#          G#
'Cause I believe if you need me to, 
F#*      C#        F*                C
I'll risk my neck, I'll go down with you. 
A#       A#        F#           G# 
There's no line to what I would do,
F#*           C#          F*     C
Can I be your life 'cause I need you. 

A#               A#           F#           F#
A moving spectacle and in the beauty of it all, 
G#                   G#
It's so much to pull that they made no law, 
F*                                C
It's just what the world has been waiting for. 
A#                 A#    F#                  F#
Somewhere down the line, more spirit than in mind, 
G#              G#            F*                       C
We'll carry on, forever gone 'cause we left everything behind. 

F#                   G#           A#
So please hand me my cover and my soul,
F#              G#             F
I'll throw away every piece I own 

A#       A#         F#          G#
'Cause I believe if you need me to, 
F#*      C#        F*                C
I'll risk my neck, I'll go down with you. 
A#       A#        F#           G# 
There's no line to what I would do,
F#*           C#          F*     C
Can I be your life 'cause I need you.

 
e|---------------------------------------------------------------------|
B|---------------------------------------------------------------------|
G|---------------------------------------------------------------------|
D|---8--8--8--8--7--7--7--7--------6--6--6--6---------5--5--5--5-------|
A|---------------------------------------------------------------------|
E|-6--6--6--6---5--5--5--5-------4--4--4--4---------3--3--3--3---------|
  I believe if you need me to, I'll risk my neck, I'll go down with you.
 
Mini Solo : A# F# F* C

F#                   G#           A#
So please hand me my cover and my soul,
F#              G#             F
I'll throw away every piece I own 


*Just after "I believe..."
e|--------------------------------------------|
B|--------------------------------------------|
G|-15--14/13--12/10---------------------------|
D|-15--14/13--12/10---------------------------|
A|-13--12/11--10/9----------------------------|
E|--------------------------------------------|
             F#          G#
I believe if you need me to, 
F#*      C#        F*                C
I'll risk my neck, I'll go down with you. 
A#       A#        F#           G# 
There's no line to what I would do,
F#*           C#          F*     C
Can I be your life 'cause I need you. 

Solo: A# A# F# G# F#* C# F* C A# A# F# G#

F#*           C#    F*          C
Can I be your life? 
F#*           C#          F*     C     A#
Can I be your life 'cause I need you.
Добавлено: 18.10.2013
Другие материалы по этой песне:
  • Аккорды и текст

Страница создана 18.06.2013
http://primanota.ru/elliot-minor/i-believe-chords.htm
Привет, Гость.
Предлагаем пройти революционный курс по гитаре.
Подарок от PrimaNota.Ru, забирай!