PrimaNota.ru - самый крупный в мире бесплатный архив песенных текстов, аккордов, табулатур и нот


Elliot Minor - Forgetting You - таба, видео

Регистрация Запомнить меня
Войти через:  Facebook Google Twitter Vk Yandex Mail.ru

Elliot Minor - Forgetting You - таба, видео

Печатать
Просмотров: 93
Hey everyone (From Aus)
This is actually my first tab although I've been playing guitar for
nearly a year and a half
now.I just found these guys out through a friend of mine the other
day and instantly wanted
to learn this song. Thats why I'm here cause I couldn't find a tab
for it so hopefully 
will help people learn this song in the proper way. Wish me luck :P

(Ps: I Will be adding bits here and there according to comments or discoveries i make myself)

Update: (03/08/2008)
 - Intro/Verse was wrong. Fixed It.
 - Added Bridge and Ending.
 - Song Structure Added.

Tuning: Standard

Intro/Verse: [x3]
|--------------------------------------|
|--------------------------------------|
|------4--------4--------4--------3-4--|
|----4---4----4---4----4---4-----------|
|--2----------------------------2------|
|-----------2--------4--------0--------|

|--------------------------------------|
|--------------------------------------|
|------4-3------3-4------4-------------|
|----4--------4--------4----------4----|
|--2--------1-------------------2---2--|
|--------------------4--------0--------|

Pre-Chorus: [x4]
|--------------------------------------|
|--------------------------------------|
|------------------------4-------------|
|------6--------2------4---4------4----|
|----6---6----2---2--2----------4---4--|
|--4--------0-----------------2--------|

Fourth Time Through (Transition to Chorus)
|--------------------|
|--------------------|
|--------------------|
|------6--------2----|
|----6---6----2---2--|
|--4--------0--------|

Chorus: [x2]
(Up And Down Strumming Or Single Strums Held. Either Sound Alright.)
|------------------------|
|------------------------|
|--4~--------------------|
|--4~---4~---6~---2~-----|
|--2~---4~---6~---2~-----|
|-------2~---4~---0~-----|
The same chords are used during the 2nd and 3rd
Pre-Chorus for 2nd Guitar.

Bridge: (Fairly Simple Strumming Pattern)
|--------------------|
|--------------------|
|------------4-------|
|--6----2----4----4--|
|--6----2----2----4--|
|--4----0---------2--|

Ending: (Played as 9th Pre-Chorus)
|--------------------|
|--------------------|
|------------4~------|
|--6----2----4~------|
|--6----2----2~------|
|--4----0------------|



 - Song Structure:
Intro/Verse [x4]
Pre-Chorus [x4]
Chorus [x2]
Verse [x2]
Pre-Chorus [x4]
Chorus
Verse [x2]
Pre-Chorus [x4]
Bridge [x3]
Pause [Bridge Chords x2]
Pre-Chorus [x8]
Ending

In the last Pre-Chorus the 1st Guitar's part is played on
piano and the 2nd guitar can be heard mainly so play
the 1st guitar part if you want still sound good if playing
Acoustic.
Добавлено: 24.10.2013
Другие материалы по этой песне:
  • Аккорды и текст

Страница создана 24.10.2013
http://primanota.ru/elliot-minor/forgetting-you-chords.htm
Привет, Гость.
Предлагаем пройти революционный курс по гитаре.
Подарок от PrimaNota.Ru, забирай!