PrimaNota.ru - самый крупный в мире бесплатный архив песенных текстов, аккордов, табулатур и нот


Ellegarden - Supernova - таба, видео

Регистрация Запомнить меня
Войти через:  Facebook Google Twitter Vk Yandex Mail.ru

Ellegarden - Supernova - таба, видео

Печатать
Просмотров: 147
Okay guys this is my very first tab, so please be nice!


Intro:
  W                    E    E   Q     E   E   E   E    
E|-------------------|----------------------------------|
B|-------------------|----------------------------------|
G|-------------------|--12s--10--10----10--10--10--12s--| x1
D|-------------------|----------------------------------|
A|-------------------|--10s---8---8-----8---8---8--10s--|
E|-------------------|----------------------------------|

   E   E   Q     E   E   E   E       E   E   Q     E   E   E   E    
|---------------------------------|---------------------------------|
|---------------------------------|---------------------------------|
|--10--10--10----10--10--10--12s--|--10--10--10----10--10--10--12s--| x6
|---------------------------------|---------------------------------|
|---8---8---8-----8---8---8--10s--|---8---8---8-----8---8---8--10s--|
|---------------------------------|---------------------------------|

   E   E   Q     E   E   E   E       E   E   Q     E   E  Q     
|---------------------------------|-----------------------------|
|---------------------------------|-----------------------------|
|--10--10--10----10--10--10--12s--|--10--10--10----10--10--9----|
|---------------------------------|-----------------------------| x1
|---8---8---8-----8---8---8--10s--|---8---8---8-----8---8--7----|
|---------------------------------|-----------------------------|

   E   E   E   E   E   E   Q      
|---------------------------------|
|---------------------------------|
|--10--10--10--10--10--10--10\----|
|---------------------------------|
|---8---8---8---8---8---8---8\----|
|---------------------------------|



Verse:

PM PM PM PM PM PM PM PM    PM PM PM PM PM PM PM PM  
  E  E  E  E  E  E  E  E     E  E  E  E  E  E  E  E   
|--------------------------|--------------------------|
|--------------------------|--------------------------|
|--------------------------|--------------------------|
|--------------------------|--------------------------|
|--3--3--3--3--3--3--3--3--|--3--3--3--3--3--3--3--3--|
|--1--1--1--1--1--1--1--1--|--1--1--1--1--1--1--1--1--|


  PM PM PM PM PM PM PM PM    PM PM PM PM PM PM PM PM  
  E  E  E  E  E  E  E  E     E  E  E  E  E  E  E  E   
|--------------------------|--------------------------|
|--------------------------|--------------------------|
|--------------------------|--------------------------|
|--3--3--3--3--3--3--3--3--|--3--3--3--3--3--3--3--3--|
|--1--1--1--1--1--1--1--1--|--1--1--1--1--1--1--1--1--|
|--------------------------|--------------------------|


 

 PM PM PM PM PM PM PM PM    PM PM PM PM PM PM PM PM  
  E  E  E  E  E  E  E  E     E  E  E  E  E  E  E  E   
|--------------------------|--------------------------|
|--------------------------|--------------------------|
|--------------------------|--------------------------|
|--7--7--7--7--7--7--7--7--|--7--7--7--7--7--7--7--7--|
|--5--5--5--5--5--5--5--5--|--5--5--5--5--5--5--5--5--|
|--------------------------|--------------------------|


  PM PM PM PM PM PM PM PM    PM PM PM PM PM PM PM PM  
  E  E  E  E  E  E  E  E     E  E  E  E  E  E  E  E   
|--------------------------|--------------------------|
|--------------------------|--------------------------|
|--------------------------|--------------------------|
|--5--5--5--5--5--5--5--5--|--5--5--5--5--5--5--5--5--|
|--3--3--3--3--3--3--3--3--|--3--3--3--3--3--3--3--3--|
|--------------------------|--------------------------|

Repeat PM section


   Q.     Q.     Q       Q.     Q.     Q         
|---------------------|---------------------|
|---------------------|---------------------|
|--1------1------1----|--5------5------5----|
|---------------------|---------------------|
|--3------3------3----|--3------3------3----|
|---------------------|---------------------|


   Q.     Q.     Q       Q.     E  H         
|---------------------|---------------------|
|---------------------|---------------------|
|--7------7------7----|--9------9-----------|
|---------------------|---------------------|
|--5------5------5----|--7------7-----------|
|---------------------|---------------------|

Chorus:

   E   E   E   E   E   E   E   E      E   E   E   E   E   E   E   E   
|----------------------------------|----------------------------------|
|----------------------------------|----------------------------------|
|--10--10--10--10--10--10--10--10--|--10--10--10--10--10--10--10--10--|
|---8---8---8---8---8---8---8---8--|--10--10--10--10--10--10--10--10--|
|----------------------------------|----------------------------------|
|----------------------------------|----------------------------------|


   E   Q     E   E   Q     E       E   E   E   E   E   E   E   E   
|------------------------------|-----------------------------------|
|------------------------------|-----------------------------------|
|--10--10----10--10--10----10--|--/14--14--14--12--12--12--10--10--|
|--10--10----10--10--10----10--|-----------------------------------|
|------------------------------|--/12--12--12--10--10--10---8---8--|
|------------------------------|-----------------------------------|




   E   E   E   E   E   E   E   E      E   E   E   E   E   E   E   E   
|----------------------------------|----------------------------------|
|----------------------------------|----------------------------------|
|--10--10--10--10--10--10--10--10--|--10--10--10--10--10--10--10--10--|
|---8---8---8---8---8---8---8---8--|--10--10--10--10--10--10--10--10--|
|----------------------------------|----------------------------------|
|----------------------------------|----------------------------------|



      PM PM PM PM     PM PM PM PM     PM PM                            
   E  S  S  S  S   E  S  S  S  S   E  S  S     E    E    H.            
|--------------------------------------------|------------------------|
|--------------------------------------------|------------------------|
|--------------------------------------------|------------------------|
|--10--------------10--------------10--------|------------------------|
|---8--8--8--8--8---8--8--8--8--8---8--8--8--|------------------------|
|---8--8--8--8--8---8--8--8--8--8---8--8--8--|--8s--13b~--L-----------|

  PM PM PM PM             PM PM PM PM           
   E  E  E  E  H           E  E  E  E  H         
|-----------------------|-----------------------|
|-----------------------|-----------------------|
|--------------3--------|--------------5--------|
|--3--3--3--3--3--------|--5--5--5--5--5--------|
|--1--1--1--1--1--------|--3--3--3--3--3--------|
|-----------------------|-----------------------|


    E   E   E   E   E   E   E   E      E   E   E   E   E   E   E   E   
|----------------------------------|----------------------------------|
|----------------------------------|----------------------------------|
|--14--14--14--14--12--12--12--12--|--10--10--10--10--10--10--10--10--|
|----------------------------------|----------------------------------|
|--12--12--12--12--10--10--10--10--|---8---8---8---8---8---8---8---8--|
|----------------------------------|----------------------------------|

   Q    E  E  E  E  E  E     Q    E  E  E  E  E  E   
|-------------------------|-------------------------|
|-------------------------|-------------------------|
|--3----3--3--3--3--3--3--|--5----5--5--5--5--5--5--|
|--3----3--3--3--3--3--3--|--5----5--5--5--5--5--5--|
|--1----1--1--1--1--1--1--|--3----3--3--3--3--3--3--|
|-------------------------|-------------------------|

    E    E   Q     E   E   E   E       E   E   Q     E   E   E   E    
|----------------------------------|--------------------------------|
|----------------------------------|--------------------------------|
|--12s--10--10----10--10--10--12s--|--10--10--10----10--10--10--12s-|
|----------------------------------|--------------------------------|
|--10s---8---8-----8---8---8--10s--|---8---8---8-----8---8---8--10s-|
|----------------------------------|--------------------------------|

    E   E   Q     E   E   E   E       E   E   Q     E   E   E   E    
|---------------------------------|---------------------------------|
|---------------------------------|---------------------------------|
|--10--10--10----10--10--10--12s--|--10--10--10----10--10--10--12s--|
|---------------------------------|---------------------------------|
|---8---8---8-----8---8---8--10s--|---8---8---8-----8---8---8--10s--|
|---------------------------------|---------------------------------|

    E   E   Q     E   E   E   E       
|---------------------------------| Chorus 1: Play this bar x1
|---------------------------------| 
|--10--10--10----10--10--10--12s--| Chorus 2 + 3: Play this bar x9
|---------------------------------| 
|---8---8---8-----8---8---8--10s--| 
|---------------------------------|


    E   Q     E   E   E  E  E      E   E   E   E   E   E   Q      
|------------------------------|---------------------------------|
|------------------------------|---------------------------------|
|--10--10----10--10--10--9--9--|--10--10--10--10--10--10--10\----|
|------------------------------|---------------------------------|
|---8---8-----8---8---8--7--7--|---8---8---8---8---8---8---8\----|
|------------------------------|---------------------------------|

Verse

Chorus

Interlude (Not had time to figure it all out yet, will put it in later)

Chorus
Добавлено: 05.04.2012
Другие материалы по этой песне:
  • Аккорды и текст

Страница создана 05.04.2012
http://primanota.ru/ellegarden/supernova-chords.htm
Привет, Гость.
Предлагаем пройти революционный курс по гитаре.
Подарок от PrimaNota.Ru, забирай!