PrimaNota.ru - самый крупный в мире бесплатный архив песенных текстов, аккордов, табулатур и нот


Ellegarden - Snake Fighting - таба, видео

Регистрация Запомнить меня
Войти через:  Facebook Google Twitter Vk Yandex Mail.ru

Ellegarden - Snake Fighting - таба, видео

Печатать
Просмотров: 190
----------------------------------------------------------------------------
                             SNAKE FIGHTING-ELLEGARDEN
----------------------------------------------------------------------------


Tuning: standard

* palm muting
h hammer ons


Intro


Guitar 1   x2
e|-------------------|------------------------------|
B|-------------------|12-12-12-12-12-12-12-12-------|
G|--9-9-9-9-9-9-9-9--|-9--9--9--9--9--9--9--9-------|
D|-------------------|------------------------------|
A|--7-7-7-7-7-7-7-7--|-7--7--7--7--7--7--7--7-------|
E|-------------------|------------------------------|

guitar 2   x2
e|-------------------|------------------------------|
B|-------------------|------------------------------|
G|-------------------|------------------------------|
D|--2-2-2-2-2-2-3-3--|-2-2-2-2-2-2-3-3--------------|
A|--2-2-2-2-2-2-3-3--|-2-2-2-2-2-2-3-3--------------|
E|--0-0-0-0-0-0-1-1--|-0-0-0-0-0-0-1-1--------------|

Main Riff (verse, preverse, etcetc)

guitar 1

e|----------------------------------------------------------------------|
B|----------------------------------------------------------------------|
G|----------------------------------------------------------------------|
D|--2~--------2h3---2h3-------------------------------------------------|
A|--2~--------2h3---2h3-------------------------------------------------|
E|--0~-0-0-0------------------------------------------------------------|
       * * *

guitar 2
e|-------------------------------------------------------------|
B|-------------------------------------------------------------|
G|-------------------------------------------------------------|
D|--2~---------2h3---2h3---------------------------------------|
A|--2~---------2h3---2h3---------------------------------------|
E|--0~-0-0-0---0h1---0h1---------------------------------------|
       * * *

Chorus
guitar 1
e|-------------------|------------------------------|
B|-8---8---8---10----|-8---8---7---7----------------|
G|---7---7---7----7--|---7---7---7---7--------------|
D|-------------------|------------------------------|
A|-------------------|------------------------------|
E|-------------------|------------------------------|

e|-------------------|------------------------------|
B|-8---8---8---10----|-8---8---7---7----------------|
G|---7---7---7----7--|---7---7---7---7--------------|
D|-------------------|------------------------------|
A|-------------------|------------------------------|
E|-------------------|------------------------------|

e|-------------------|------------------------------|
B|-8---8---8---10----|-8---8---7---7----------------|
G|---7---7---7----7--|---7---7---7---7--------------|
D|-------------------|------------------------------|
A|-------------------|------------------------------|
E|-------------------|------------------------------|

e|-10--------10------|-10--------10-----------------|
B|-----8--------8----|----8-------------7-----------|
G|---7--7------7--7--|------7---------7-------------|
D|-------------------|------------------------------|
A|-------------------|------------------------------|
E|-------------------|------------------------------|

and guitar 2   x 2
e|-------3-----------|-------3----------------------|
B|-----3---3---------|-----3---3--------------------|
G|---0-------0---0---|---0-------0----0-------------|
D|-------------2-----|-------------0----------------|
A|-3-----------------|------------------------------|
E|-------------------|-3----------------------------|
  Cadd9               G

e|------2------------|-------3----------------------|
B|----3---3---3------|-----0---0---0----------------|
G|--2-------2--------|---3-------3------------------|
D|-0-----------------|------------------------------|
A|-------------------|------------------------------|
E|-------------------|-0----------------------------|
  D                    Em7

This is basically how the song goes. Sorry i couldnt be bothered to tab up the bridge 
its lyk D D C D Em G C D Em Em C D G (a bar for each chord).

Intro
Verse
Chorus
Verse
Chorus
Bridge
Intro
Verse
Добавлено: 17.06.2012
Другие материалы по этой песне:
  • Аккорды и текст

Страница создана 17.06.2012
http://primanota.ru/ellegarden/snake-fighting-chords.htm
Привет, Гость.
Предлагаем пройти революционный курс по гитаре.
Подарок от PrimaNota.Ru, забирай!