PrimaNota.ru - самый крупный в мире бесплатный архив песенных текстов, аккордов, табулатур и нот


Ellegarden - Santa Claus - бас-таба, видео

Регистрация Запомнить меня
Войти через:  Facebook Google Twitter Vk Yandex Mail.ru

Ellegarden - Santa Claus - бас-таба, видео

Печатать
Просмотров: 146
Ellegarden - Santa Claus

Verse
G|-----------------|
D|-----------------|
A|-1~--2~--4~--4~--|
E|-----------------| x6

G|------------------------------------|
D|------------------------------------|
A|-11111111-22222222-4444444444444444-|
E|------------------------------------| x4


Chorus
G|--------------------------------|
D|--------------------------------|
A|-----------------1-1-1---2-2-2--|
E|-2-2-2---4-4-4------------------| x4


Verse 2
G|-----------------|
D|-----------------|
A|-1~--2~--4~--4~--|
E|-----------------| x2

G|------------------------------------|
D|------------------------------------|
A|-11111111-22222222-4444444444444444-|
E|------------------------------------| x2


Chorus
G|--------------------------------|
D|--------------------------------|
A|-----------------1-1-1---2-2-2--|
E|-2-2-2---4-4-4------------------| x4


Bridge
G|---------------------------------|
D|---------------------------------|
A|-11111111-22222222---------------|
E|-------------------22-222-222222-| x4

G|-----------------|
D|-----------------|
A|-1~--2~--4~--4~--|
E|-----------------| x2


Chorus
G|--------------------------------|
D|--------------------------------|
A|-----------------1-1-1---2-2-2--|
E|-2-2-2---4-4-4------------------| x4


Outro
G|-------------------------------------|
D|-------------------------------------|
A|-------------------11111111-22222222-|
E|-22222222-44444444-------------------| x2

G|---------------------------------|
D|---------------------------------|
A|-----------------1-1-1-1-2-2-2-2-|
E|-2-2-2-2-4-4-4-4-----------------| x4

corrections are welcome
www.myspace.com/punkbaby314
Добавлено: 28.07.2012
Другие материалы по этой песне:
  • Аккорды и текст

Страница создана 28.07.2012
http://primanota.ru/ellegarden/santa-claus-chords.htm
Привет, Гость.
Предлагаем пройти революционный курс по гитаре.
Подарок от PrimaNota.Ru, забирай!