PrimaNota.ru - самый крупный в мире бесплатный архив песенных текстов, аккордов, табулатур и нот


Ellegarden - Middle Of Nowhere - бас-таба, видео

Регистрация Запомнить меня
Войти через:  Facebook Google Twitter Vk Yandex Mail.ru

Ellegarden - Middle Of Nowhere - бас-таба, видео

Печатать
Просмотров: 78
Ellegarden - Middle of Nowhere

Tabbed by: Ashy (XxThreeCheersxX)
E-mail: burdickash@gmail.com

Tuning: Standard

Intro/Verse
G|-----------------------------------------|
D|-----------------------------------------|
A|-8~-------6~--------\3~--------4~--------| x 6
E|-----------------------------------------|

Pre-Chorus
G|-------------------------------------------------------------------------------------------------|
D|-------------------------------------------------------------------------------------------------|
A|-4-4-4-4-4-4-6-6-6-6-6-6-3-3-3-3-3-3-4-4-4-4-4-4-4-4-4-4-4-4-6-6-6-6-6-6-3-3-3-3-3-3-4-4-4-4-3-4-|
E|-------------------------------------------------------------------------------------------------|

G|-------------------------------------------------------------------------------------------------|
D|-------------------------------------------------------------------------------------------------|
A|-4-4-4-4-4-4-6-6-6-6-6-6-3-3-3-3-3-3-4-4-4-4-4-4-4-4-4-4-4-4-6-6-6-6-6-6-3-3-3-3-3-3-4-4-4-4-4-4-|
E|-------------------------------------------------------------------------------------------------|

Chorus x 2
G|-------------------------------------------------|
D|-------------------------------------------------|
A|-4-4-4-4-4-4-6-6-6-6-6-6-8-8-8-8-8-8-8-8-8-8-8-8-|
E|-------------------------------------------------|
                                                               
G|------------------------------------------------|
D|-------------------------------6---6-8-8-6---6--|
A|-4-4-4-4-4-4-6-6-6-6-6-6-8-8-8---8---------8----|
E|------------------------------------------------|

Pre-Chorus

Bridge
G|-------------------------------------------------|
D|-------------------------------------------------|
A|-------------------------------------------------|
E|-4-4-4-4-4-4-4-4-4-4-4-4-4-4-4-4-4-4-4-4-4-4-4-4-|

G|-------------------------------------------------|
D|-------------------------------------------------|
A|-4-4-4-4-4-4-4-4-4-4-4-4-4-4-4-4-4-4-4-4-4-6-6-6-|
E|-------------------------------------------------|

G|-------------------------------------------------|
D|-------------------------------------------------|
A|-8-8-8-8-8-8-8-8-8-8-8-8-8-8-8-8-8-8-8-8-8-8-8-8-|
E|-------------------------------------------------|

G|-------------------------------------------------|
D|-------------------------------------------------|
A|-4-4-4-4-4-4-4-4-4-4-4-4-4-4-4-4-4-4-4-4-4-6-6-6-|
E|-------------------------------------------------|

G|-------------------------------------------------|
D|-------------------------------------------------|
A|-3-3-3-3-3-3-3-3-3-3-3-3-4-4-4-4-4-4-4-4-4-4-6-4-| x 2
E|-------------------------------------------------|

Pre-Chorus

Chorus x 4

End on:
G|-----------|
D|-----------|
A|-4~--------|
E|-----------|


| /  slide up
| \  slide down
| h  hammer-on
| p  pull-off
| ~  vibrato
| +  harmonic
| x  Mute note
===============================================================================
Добавлено: 28.10.2015
Другие материалы по этой песне:

Страница создана 12.03.2012
http://primanota.ru/ellegarden/middle-of-nowhere-chords.htm
Привет, Гость.
Предлагаем пройти революционный курс по гитаре.
Подарок от PrimaNota.Ru, забирай!