PrimaNota.ru - самый крупный в мире бесплатный архив песенных текстов, аккордов, табулатур и нот


Ellegarden - Fire Cracker - аккорды и текст, видео

Регистрация Запомнить меня
Войти через:  Facebook Google Twitter Vk Yandex Mail.ru

Ellegarden - Fire Cracker - аккорды и текст, видео

Печатать
Просмотров: 112
Fire Cracker
Ellegarden
Ellegarden - Fire Cracker, tabbed by Modest Guy

Chords used:

Dm7                   E                    A                   Abm
|--1--------|         |--0--------|        |--0--------|       |--4--------|
|--1--------|         |--0--------|        |--2--------|       |--4--------|
|--2--------|         |--1--------|        |--2--------|       |--5--------|
|--0--------|         |--2--------|        |--2--------|       |--6--------|
|-----------|         |--2--------|        |--0--------|       |--6--------|
|-----------|         |--0--------|        |-----------|       |--4--------|

F#m                   B                    C#m
|--2--------|         |--7--------|        |--9--------|
|--2--------|         |--7--------|        |--9--------|
|--3--------|         |--8--------|        |--10-------|
|--4--------|         |--9--------|        |--11-------|
|--4--------|         |--9--------|        |--11-------|
|--2--------|         |--7--------|        |--9--------|


Intro :   F#m / E / B / B

     Dm7                   E
Now i finally understand   We're all here to play an endless game
     A              Abm          F#m
And winning is just bad as losing
     Dm7                    E
Am I sick not anymore   How could I be tonight
           D              E               A            F#m
To find it floating in my static dream   Just sing it, sing it
D                      E                       A
Even though I've never said the words    Don't fake it no more
           D              E               A            F#m
To find it floating in my static dream   Just sing it, sing it
D                      E                   B
Even though I've never said the words    I feel right now

     Dm7                                 E
Now I've got these far anyway   And I've finally turned to my last page
       A                  Abm                   F#m
These countless memories still holding me back
     Dm7                    E
Am I sick not anymore   How could I be tonight
 D              E               A            F#m
To find it floating in my static dream   Just sing it, sing it
D                      E                       A
Even though I've never said the words    Don't fake it no more
           D              E               A            F#m
To find it floating in my static dream   Just sing it, sing it
D                      E                   B
Even though I've never said the words    I feel right now

   F#m                          A
the tired song of summer that I used to sing
   B                            E
And you found me somehow good and it's so much fun to be with you
   A                            C#m
You can't imagine how I was dying just to talk to you
       D                           E
We can leave it as it is    We can be as one as well

           D              E               A            F#m
To find it floating in my static dream   Just sing it, sing it
D                      E                       A
Even though I've never said the words    Don't fake it no more
           D              E               A            F#m
To find it floating in my static dream   Just sing it, sing it
D                      E                   B
Even though I've never said the words    I feel right now
Добавлено: 07.04.2012
Другие материалы по этой песне:
  • Аккорды и текст

Страница создана 07.04.2012
http://primanota.ru/ellegarden/fire-cracker-chords.htm
Привет, Гость.
Предлагаем пройти революционный курс по гитаре.
Подарок от PrimaNota.Ru, забирай!