PrimaNota.ru - самый крупный в мире бесплатный архив песенных текстов, аккордов, табулатур и нот


Ellegarden - Can You Feel Like I Do - таба, видео

Регистрация Запомнить меня
Войти через:  Facebook Google Twitter Vk Yandex Mail.ru

Ellegarden - Can You Feel Like I Do - таба, видео

Печатать
Просмотров: 151
Уроки эстрадного вокала в Санкт-Петербурге
-----------------------------------------------------------------------------
                       Can You Feel Like I Do - Ellegarden
-----------------------------------------------------------------------------

Tabbed by: kamikaz1_k
Email: forever_double_d@hotmail.com

Tuning: standard

some notes:
-I'm only putting down shapes because I always found it weird to read the rhythm pattern in tab
-The chords are my best approximations, it's my first tab...
-The solo is spot on though (well, maybe miss a note or two)

/ - Slide Up
\ - Slide Down
^ - Bend
v - vibrato
~ - hold
h - hammer on
r - release to (it follows the ^ bend)


===============================
chorus
===============================
lead:
e|--------------------------------------------------------------------------|
B|--------------------------------------------------------------------------|
G|--------------------------------------------------------------------------|
D|----10----12----10----12-----repeat---------------------------------------|
A|-10----10----10----10-----------------------------------------------------|
E|--------------------------------------------------------------------------|
rhythm:
e|--------------------------------------------------------------------------|
B|--------------------------------------------------------------------------|
G|--------------------------------------------------------------------------|
D|-3---------------------2--------------------5------------------7*---------|
A|-3---------------------2--------------------5----------------- 7*---------|
E|-1---------------------0--------------------3------------------5*---------|
*this chord is only played in the first instance of the phrase. replace it with power chord at 3


=============================
Verse1(acoustic)
=============================
Rhythm:
e|--7------------------------3------------------------------------------|
B|--8------------------------5------------------------------------------|
G|--9------------------------5------------------------------------------|
D|--9------------------------5------------------------------------------|
A|--7------------------------3------------------------------------------|
E|----------------------------------------------------------------------|
Lead:
e|------------------------------------------------------------------------|
B|---8----8----8----8-----------------------------------------------------|
G|---9 / 10  \ 9 / 10-----------------------------------------------------|
D|---9----9----9----9-----------------------------------------------------|
A|---7----7----7----7-----------------------------------------------------|
E|------------------------------------------------------------------------|
you slide the finger back and forth while strumming

this is the bridge to the chorus, its played by the lead on the last bar
(arpeggiated power chord)
e|-------------------------------------------------------------------------|
B|-------------------------------------------------------------------------|
G|-------------12----------------------------------------------------------|
D|-------12---------10-----------------------------------------------------|
A|--10---------------------------------------------------------------------|
E|-------------------------------------------------------------------------|

**Chorus**


==============================
Verse2(electric)
==============================

Rhythm:
e|-------------------------------------------------------------------------|
B|-------------------------------------------------------------------------|
G|-------------------------------------------------------------------------|
D|---7----------------5---------------3------------------------------------|
A|---7----------------5---------------3------------------------------------|
E|---5----------------3---------------1------------------------------------|

Lead: (as far as I can tell, they're arpp'd power chords)
e|--------------------------------------------------------------------|
B|--------------------------------------------------------------------|
G|--------9-----------------7---------------5-------------------------|
D|-----7-----7-----------7-----7---------5-----5----------------------|
A|--7-----------------5---------------3-------------------------------|
E|--------------------------------------------------------------------|

bridge before solo
==================
e|---------------------------------------------------------------------|
B|---------------------------------------------------------------------|
G|-----------------------------------------10--------------------------|
D|--------7---------9----------10------10------------------------------|
A|-----7---------7---------10-------9----------------------------------|
E|--5---------7---------9----------------------------------------------|

===============================
solo
===============================
e|---------------------------------------------------------------------|
B|---------------------------------------------------------------------|
G|--------------------------------------/7-7-7v-7-7-7^-r5----5--4-5-4--|
D|--------5------3--2-------------------------------------------------5|
A|--3--3---------------3-----------------------------------------------|
E|---------------------------------------------------------------------|

e|----------------------------------------------------------------------|
B|------------------8---------------------------------------------------|
G|--------5-----7^-----^7--7--5--7--5--7--5-----------------------------|
D|--5--7-----7-------------------------------7v----5 \ 3-3-3-3-2-3-2----|
A|-------------------------------------------------------------------3--|
E|----------------------------------------------------------------------|

e|-----------------------------------------------------------------------|
B|---------------------------------------------8^v-----------5---6---8^v-|
G|--------------------------------7-7v-5---5-7---------5-7-5---5---5-----|
D|----------------------------5-7--------7-------------------------------|
A|-3 / 5----5v--------5-7-5-7--------------------------------------------|
E|------------------8----------------------------------------------------|


e|-----------------------------------------------------------------|
B|-------5---6---8^v------------5---6---8^v------------5---6---8^v-|
G|-5-7-5---5---5----------5-7-5---5---5----------5-7-5---5---5-----|
D|-----------------------------------------------------------------|
A|-----------------------------------------------------------------|
E|-----------------------------------------------------------------|

e|---------------------------------------------------------------------|
B|-8^--8---5--6--5-6-5-------------------5h4-5h4--------2 / 5-4--------|
G|---------------------7--5--4--5-/-7------------5~\------------5------|
D|---------------------------------------------------------------------|
A|---------------------------------------------------------------------|
E|---------------------------------------------------------------------|

e|-------------------------------------------------------------------|
B|-------------------------------------------------------5---5-8^----|
G|------------------4---4-5-5^--5--4-------4-5-4-5-7-5-7---7---------|
D|---5--7--7v---5-7---7--------------7-5-7---------------------------|
A|-------------------------------------------------------------------|
E|-------------------------------------------------------------------|

e|--------------------------------------------------------------|
B|--8--5--------8^--8v----8v----8v----8v------------------------|
G|--------7--5--5^--5v----5v----5v----5v------------------------|
D|--------------------------------------------------------------|
A|--------------------------------------------------------------|
E|--------------------------------------------------------------|

Rhythm(basically chorus):
e|-------------------------------------------------------------------------|
B|-------------------------------------------------------------------------|
G|---5---------------------------------------------------------------------|
D|---5-------5--------2--------3-------------------------------------------|
A|---3-------5--------2--------3-------------------------------------------|
E|-----------3--------0--------1-------------------------------------------|

=====================
Verse3
=====================

Rhythm:
e|-------------------------------------------------------------------------|
B|--5---------3---------1--------------------------------------------------|
G|--5---------3---------1--------------------------------------------------|
D|--7---------5---------3--------------------------------------------------|
A|--7---------5---------3--------------------------------------------------|
E|--5---------3---------1--------------------------------------------------|
    Am        Gm        Fm

Lead: is Rhythm Arppegiated


**Chorus**

Well that's my tab (first one infact!)
I have a crappy GPro version which you can tweak around to make it sound better. PM if you want it.
Thanks for reading my tab!
Cheers.
Добавлено: 30.06.2012
Другие материалы по этой песне:
  • Аккорды и текст

Страница создана 30.06.2012
http://primanota.ru/ellegarden/can-you-feel-like-i-do-chords.htm
Привет, Гость.
Предлагаем пройти революционный курс по гитаре.
Подарок от PrimaNota.Ru, забирай!