PrimaNota.ru - самый крупный в мире бесплатный архив песенных текстов, аккордов, табулатур и нот


Ellegarden - Butterfly - таба, видео

Регистрация Запомнить меня
Войти через:  Facebook Google Twitter Vk Yandex Mail.ru

Ellegarden - Butterfly - таба, видео

Печатать
Просмотров: 206
Уроки эстрадного вокала в Санкт-Петербурге
-------------------------------------------------------------------------------
                             Butterfly - ELLEGARDEN
-------------------------------------------------------------------------------
Tabbed by:Sherman Leung
Email: shermn2@aol.com

Tuning: Standard

Intro Riff

e|---------------------------------------------------------------------------|
B|---------------------------------------------------------------------------|
G|---------------------------------------------------------------------------|
D|-4-4-xxxx----4-4-xxxx----4-4-xxxx----4-4-xxxx--5---------------------------|
A|-4-4-xxxx----4-4-xxxx----4-4-xxxx----4-4-xxxx--5---------------------------|
E|-2-2-xxxx----2-2-xxxx----2-2-xxxx----2-2-xxxx--3---------------------------|

Verse Riff

e|---------------------------------------------|
B|---------------------------------------------|
G|---------------------------------------------|
D|-4-------------------------------------------|
A|--5-5/7-5------------------------------------|
E|---5-----7-----------------------------------|

Pre-Chorus Riff
e|--------------------------------------------------|
B|--------------------------------------------------|
G|--------------------------------------------------|
D|-4----4-4-4-4-4-4-4---5---------------------------|
A|-4----4-4-4-4-4-4-4---5---------------------------|
E|-2----2-2-2-2-2-2-2---3---Slide-------------------|
PM      . . . . . . .

Chorus Riff

e|----------------------------------|
B|----------------------------------|
G|-4-4-44---------7-7-77------------|
D|-4-4-44-5-5-55--7-7-77-7-7-77-----|
A|-2-2-22-5-5-55--5-5-55-7-7-77-----|
E|--------3-3-33---------5-5-55-----|
                               (x2)

e|---------------------------------------------------------------------------|
B|---------------------------------------------------------------------------|
G|-4-4-4-4-4~-------------7-7-7-7-7~-----------------------------------------|
D|-4-4-4-4-4~-5-5-5-5-5~--7-7-7-7-7~-7-7-7-7-7~----5555-5-5555555------------|
A|-2-2-2-2-2~-5-5-5-5-5~--5-5-5-5-5~-7-7-7-7-7~----5555-5-5555555------------|
E|------------3-3-3-3-3~-------------5-5-5-5-5~----3333-3-3333333------------|
   . . . .    . . . .     . . . .    . . . .

Back to Intro

(verse etc.)

Break Riff (Clean)
e|-----5---------------------------------------------------------------------------|
B|------5--------------------------------------------------------------------------|
G|---7----6-6-5--------------------------------------------------------------------|
D|-------------5-------------------------------------------------------------------|
A|-5------------5------------------------------------------------------------------|
E|---------------------------------------------------------------------------------|
 Repeate as nescessary

Chorus, etc.

| /  slide up
| \  slide down
| h  hammer-on
| p  pull-off
| ~  let ring
| +  harmonic
| x  Mute note
===============================================================================
Добавлено: 13.05.2012
Другие материалы по этой песне:
  • Аккорды и текст

Страница создана 13.05.2012
http://primanota.ru/ellegarden/butterfly-chords.htm
Привет, Гость.
Предлагаем пройти революционный курс по гитаре.
Подарок от PrimaNota.Ru, забирай!