PrimaNota.ru - самый крупный в мире бесплатный архив песенных текстов, аккордов, табулатур и нот


Ellegarden - Bored Of Everything - бас-таба, видео

Регистрация Запомнить меня
Войти через:  Facebook Google Twitter Vk Yandex Mail.ru

Ellegarden - Bored Of Everything - бас-таба, видео

Печатать
Просмотров: 94
Уроки эстрадного вокала в Санкт-Петербурге
Ellegarden - Bored of Everything

Tabbed by: Ashy (XxThreeCheersxX)
E-mail: burdickash@gmail.com

Tuning: Standard

Main Riff
G|-----------------------------------------------------------------|
D|-----------------------------------------------------------------|
A|-----------------5-5-5-5-5-5-5-5-----------------3-3-3-3-3-3-3-3-| x 2
E|-3-3-3-3-3-3-3-3-----------------0-0-0-0-0-0-0-0-----------------|

Verse I
G|-----------------------------------------------------------------|
D|-----------------------------------------------------------------|
A|-----------------5-5-5-5-5-5-5-5-----------------3-3-3-3-3-3-3-3-| x 3
E|-3-3-3-3-3-3-3-3-----------------0-0-0-0-0-0-0-0-----------------|

G|-----------------------------------------------------------------|
D|-----------------------------------------------------------------|
A|-----------------5-5-5-5-5-5-5-5-7-7-7-7-7-7-7-7-7-7-7-7-7-7-7-7-| 
E|-3-3-3-3-3-3-3-3-------------------------------------------------|

Chorus x 2
G|-----------------------------------------------------------|
D|-----------------------------------------------------------|
A|-3--3--3-3-3------------------5--5--5-5-5------------------|
E|-------------0--0-0-0-0-0-0-0-------------3--3-3-3-3-3-3-3-|

G|---------------------------------------------------------------------------|
D|---------------------------------------------------------------------------|
A|-3--3--3-3-3------------------5--5--5-5-5------------------5-5-5-5-5-5-5-5-|
E|-------------0--0-0-0-0-0-0-0-------------3--3-3-3-3-3-3-3-----------------|

Main Riff x 2

Verse II (same as before)

Chorus (same as before)

Bridge
G|-----------------|
D|-----------------|
A|-----------------|
E|-3-3-3-3-3-3-3-3-|

G|-----------------------------------------------------------------|
D|-----------------------------------------------------------------|
A|-----------------------------------------------------------------|
E|-3-3-3-3-3-3-3-3-3-3-3-3-3-3-3-3-3-3-3-3-3-3-3-3-3-3-3-3-3-3-3-3-|
                                                                                
G|-------------------------------------------------------------|
D|-------------------------------------------------------------|
A|-------------------------------------------------------------|
E|-12--12--12--12-12--12\0--0----12--12--12--12-12--12\0--0----|

G|-----------------------------------------------------------------|
D|-----------------------------------------------------------------|
A|-----------------------------------------------------------------|
E|-3-3-3-3-3-3-3-3-3-3-3-3-3-3-3-3-3-3-3-3-3-3-3-3-3-3-3-3-3-3-3-3-|

G|-----------------------------------------------------------|
D|-----------------------------------------------------------|
A|-----------------------------------------------------------|
E|-12--12--12--12-14--12-14--12----12--12--12--12-14x--------|

Final Chorus x 2
G|-----------------------------------------------------------|
D|-----------------------------------------------------------|
A|-3--3--3-3-3------------------5--5--5-5-5-3--3-3-3-3-3-3-3-|
E|-------------0--0-0-0-0-0-0-0------------------------------|

G|----------------------------------------------|
D|----------------------------------------------|
A|-3--3--3-3-3------------------5-5-5-5-5-5-5-5-|
E|-------------0--0-0-0-0-0-0-0-----------------|

Main Riff x 2

End on:
G|-------------------------------|
D|-------------------------------|
A|-------------------------------|
E|-3~----------------------------|

Happy playing!

| /  slide up
| \  slide down
| h  hammer-on
| p  pull-off
| ~  vibrato
| +  harmonic
| x  Mute note
===============================================================================
Добавлено: 28.10.2015
Другие материалы по этой песне:
  • Аккорды и текст

Страница создана 28.10.2015
http://primanota.ru/ellegarden/bored-of-everything-chords.htm
Привет, Гость.
Предлагаем пройти революционный курс по гитаре.
Подарок от PrimaNota.Ru, забирай!