PrimaNota.ru - самый крупный в мире бесплатный архив песенных текстов, аккордов, табулатур и нот


Ellegarden - Autumn Song - таба, бас-таба, видео

Регистрация Запомнить меня
Войти через:  Facebook Google Twitter Vk Yandex Mail.ru

Ellegarden - Autumn Song - таба, бас-таба, видео

Печатать
Просмотров: 246
Уроки эстрадного вокала в Санкт-Петербурге
-------------------------------------------------------------------------------
                             THE AUTUMN SONG - ELLEGARDEN
-------------------------------------------------------------------------------
Tabbed by:Sherman Leung
Email:yayanime@hotmail.com

After months of searching, I found that there are absolutely no ELLEGARDEN tabs
on the net. Shocked to find this, as they are one of my favriout bands from japan.
This is one of their easier songs to play. As an extra, I'll even throw in the lyrics,
coutesy of some lyrics website.
Have Fun! 
Tuning: Standard Tuning (EADGBe)
 ------------------
|Guitar one (Rhythm)|
 ------------------
Riff 1 (Intro and Verse)
E|---------------------------------------------------------------------------|
B|---------------------------------------------------------------------------|
G|------------------44444444-------------------------------------------------|
D|------------------22222222-------------------------------------------------|
A|--6666666677777777--------22222222-----------------------------------------|
e|--4444444455555555--------00000000-----------------------------------------|
PM  ................................ 

RIff 2 (Intro)
E|---------------------------------------------------------------------------|
B|---------------------------------------------------------------------------|
G|------------------44444444-------------------------------------------------|
D|------------------22222222-------------------------------------------------|
A|--6666666677777777--------2~-----------------------------------------------|
e|--4444444455555555--------0~-----------------------------------------------|
PM  ................. 

Riff 3 (Chorus) 
e|---------------------------------------------------------------------------|
B|---------------------------------------------------------------------------|
G|-66666666------------------------------------------------------------------|
D|-66666666666666667777777722222222------------------------------------------|
A|-44444444666666667777777722222222------------------------------------------|
E|---------444444445555555500000000------------------------------------------|

Riff 4 (Fill)
e|-------------------|
B|-------------------|
G|---12^-12^~--------|
D|-66----------------|
A|-xx----------------|
E|-44----------------|
Guitar one's Song Structure
Riff 1 x3
Riff 2 x1
Riff 3 x4
Riff 1 x4
Riff 3 x4
Riff 4 x1
Riff 3 x4
(Break, Just Lead Guitar and Drums)
Riff 1 x1
Riff 2 x1
Riff 3 x8

==============================================================================
Guitar Two (Lead)

Intro
(Wait for Rhythm guitar to go through Riff 1 twice)
e|---------------------------------------------------------------------------|
B|---9---9---9---9---9---9---9---9-------------------------------------------|
G|--9-9-9-9-9-9-9-9-9-9-9-9-9-9-9-9-99~--------------------------------------|
D|-9---9---9---9---9---9---9---9---9-----------------------------------------|
A|---------------------------------------------------------------------------|
E|---------------------------------------------------------------------------|

Chorus
e|---------------------------------------------------------------------------|
B|---------------------------------------------------------------------------|
G|-66666666------------------------66666666----------------------------------|
D|-6666666666666666777777772222222266666666666666667777777722222222----------|
A|-4444444466666666777777772222222244444444666666667777777722222222----------|
E|---------444444445555555500000000--------444444445555555500000000----------|

in case you don't notice, there are two digit figures in this riff  (11, 12 and
13 not 1, 2 or 3)
e|-----------------------------------------------------------------------------|
B|-----------------------------------------------------------------------------|
G|-----13131313\11111111\7777\8-\6-\8--/9-\4-----11/9999-11/9999-8999----------|
D|-6666-x-x-x-x\-x-x-x-x\xxxx\x-\x-\x--/x-\x-76~--x/xxxx--x/xxxx-xxxx----------|
A|-xxxx11111111\-9-9-9-9\5555\6-\4-\6--/7-\2-xx~--9/7777--9/7777-6777----------|
E|-4444--------------------------------------54~-------------------------------|
I can't figure out the verse riff, or the solo, someone help please D:
-A Few Parts Missing-
(I'm sorry, blahblahblah)

After solo

e|---------------------------------------------------------------------------|
B|---9---9---9---9---9---9---9---9---9---9---9---9---------------------------|
G|--9-9-9-9-9-9-9-9-9-9-9-9-9-9-9-9-9-9-9-9-9-9-9-9--------------------------|
D|-9---9---9---9---9---9---9---9---9---9---9---9---9-------------------------|
A|---------------------------------------------------------------------------|
E|---------------------------------------------------------------------------|
Repeate that bit till chorus

Follow Rhythm guitar's Riff 3 four times, then:
e|-----------------------------------------------------------------------------|
B|-----------------------------------------------------------------------------|
G|-----13131313\11111111\7777\8-\6-\8--/9-\4-----------------------------------|
D|-6666-x-x-x-x\-x-x-x-x\xxxx\x-\x-\x--/x-\x-76~-------------------------------|
A|-xxxx11111111\-9-9-9-9\5555\6-\4-\6--/7-\2-xx~-------------------------------|
E|-4444--------------------------------------54~-------------------------------|

e|-----------------------------------------------------------------------------|
B|-----------------------------------------------------------------------------|
G|-----13131313\11111111\7777\8-\6-\8--/9--------------------------------------|
D|-6666-x-x-x-x\-x-x-x-x\xxxx\x-\x-\x--/x--------------------------------------|
A|-xxxx11111111\-9-9-9-9\5555\6-\4-\6--/7--------------------------------------|
E|-4444------------------------------------------------------------------------|
Repeate twice and hold the last chord. Then you're finished! =D

[End]

| /  slide up
| \  slide down
| h  hammer-on
| p  pull-off
| ~  vibrato
| +  harmonic
| x  Mute note
===============================================================================
Добавлено: 02.07.2012
Другие материалы по этой песне:

Страница создана 01.03.2012
http://primanota.ru/ellegarden/autumn-song-chords.htm
Привет, Гость.
Предлагаем пройти революционный курс по гитаре.
Подарок от PrimaNota.Ru, забирай!