PrimaNota.ru - самый крупный в мире бесплатный архив песенных текстов, аккордов, табулатур и нот


Ellegarden - Acropolis - бас-таба, видео

Регистрация Запомнить меня
Войти через:  Facebook Google Twitter Vk Yandex Mail.ru

Ellegarden - Acropolis - бас-таба, видео

Печатать
Просмотров: 184
-------------------------------------------------------------------------------
			     Acropolis - Ellegarden
-------------------------------------------------------------------------------

Tabbed By : ruohki
e-mail: ruohki@gmail.com

Tuning: EADG (Standard)
        M  S Milisecond
Start: 00:11:5
Part1: 1x
G|-----------------------------------------------------------------|
D|-----------------------------------------------------------------|
A|-5-5-5-5-5-5-5-5-1-1-1-1-1-1-1-1-3-3-3-3-3-3-3-3-----------------|
E|-------------------------------------------------3-3-3-3-3-3-3-3-|

Chorus: 2x
G|-----------------------------------------------------------------|
D|-----------------------------------------------------------------|
A|-----------------------------------------------------------------|
E|-1-1-1-1-1-1-1-1-3-3-3-3-3-3-3-3-5-5-5-5-5-5-5-5-6-6-6-6-6-6-6-6-|

Part1: 2x
Chorus: 2x

Part2: 2x
G|-----------------------------------------------------------------|
D|-----------------------------------------------------------------|
A|-----------------1-1-1-1-1-1-1-1-5-5-5-5-5-5-5-5-3-3-3-3-3-3-3-3-|
E|-1-1-1-1-1-1-1-1-------------------------------------------------|

Guitar Solo Thingy until: 02:04:5

Part1: 1x
Chorus: 2x
Part2: 2x

| /  slide up
| \  slide down
| h  hammer-on
| p  pull-off
| ~  vibrato
| +  harmonic
| x  Mute note
===============================================================================

Have fun with this very cool ellegarden song... more to come soon
Добавлено: 17.07.2012
Другие материалы по этой песне:
  • Аккорды и текст

Страница создана 17.07.2012
http://primanota.ru/ellegarden/acropolis-chords.htm
Привет, Гость.
Предлагаем пройти революционный курс по гитаре.
Подарок от PrimaNota.Ru, забирай!