PrimaNota.ru - самый крупный в мире бесплатный архив песенных текстов, аккордов, табулатур и нот


Elle Varner - Only Wanna Give It To You - бас-таба, видео

Регистрация Запомнить меня
Войти через:  Facebook Google Twitter Vk Yandex Mail.ru

Elle Varner - Only Wanna Give It To You - бас-таба, видео

Печатать
Просмотров: 74
----------------------------------------------------------------------------
                 Only Wanna Give It To You - Elle Varner
----------------------------------------------------------------------------
Tabbed by: Chris Raw 

Beginner bass player - tried to learn by ear so probably not very accurate.

Tuning: Standard     BPM: 98

This is the general riff played throughout
G|---------------- ---------------- ---------------- ----------------|
D|3----3-32---2--- --------------0- 3----3-32---2--- --------------0-|
A|----3-3----3--3- 0----0-03--03--- ----3-3----3--3- 0-0-2-3---2-3---|
E|---------------- ----3-3--------- ---------------- ----------------|

variation before first chorus (0:38)
G|---------------- ---------------- ---------------- ----------------|
D|3---3--2-------- ---------------- ----3--2-------- -------0--------|
A|------3--------- 0---0--3-------- ------3--------- 0---0-3---------|
E|---------------- ------3--------- 1--------------- ----------4-3-2-|


(roughly) what is played after second chorus (1:55)
G|---4------------ ---------------- ---4------------ ---5------------|
D|3-----2--------- --7------------- ------2--------- ------5---------|
A|---------------- ----7-5-----0-1- 2----------32-1- 0---------------|
E|-----------23-4- 5--------------- ---------------- ------------3-2-|

G|---------------- ---------------- ---------------- ----11h12h13----|
D|----3-2--------- --7------------- -----23--------- ----------------|
A|--3------------- ----7-5--------- ----3----------- ----------------|
E|1----------23-4- 5-----------3-2- 1-------------1- 0---------------|
                                                          ^^^^^^
                                                   (these are 11, 12 &
                                                   13, are to be played 
                                                   in quick succession)
| /  slide up
| \  slide down
| h  hammer-on
| p  pull-off
| ~  vibrato
| +  harmonic
| x  Mute note
==========================================================================
Добавлено: 22.12.2015
Другие материалы по этой песне:
  • Аккорды и текст

Страница создана 22.12.2015
http://primanota.ru/elle-varner/only-wanna-give-it-to-you-chords.htm
Привет, Гость.
Предлагаем пройти революционный курс по гитаре.
Подарок от PrimaNota.Ru, забирай!