PrimaNota.ru - самый крупный в мире бесплатный архив песенных текстов, аккордов, табулатур и нот


The Ellameno Beat - Stone Cold - таба, видео

Регистрация Запомнить меня
Войти через:  Facebook Google Twitter Vk Yandex Mail.ru

The Ellameno Beat - Stone Cold - таба, видео

Печатать
Просмотров: 65
-------------------------------------------------------------------------------
                             Stone Cold - The Ellameno Beat
-------------------------------------------------------------------------------
Tabbed by: wattmalter

Tuning: Standard

Intro:
e|--7\----7---3\---2--|
B|--8\----8---3\---3--|
G|--9\----9---4\---4--|
D|--9\----9---5\---4--|
A|--7\----7---5\---2--|
E|------------3\------|

Chords:
Don't press the strings down just rest against them
e|--7--x--7--x--3--x--3--x--2--x--2--x--|
B|--8--x--8--x--3--x--3--x--3--x--3--x--|
G|--9--x--9--x--4--x--4--x--4--x--4--x--|
D|--9-----9-----5-----5-----4-----4-----|
A|--7-----7-----5-----5-----2-----2-----|
E|--------------3-----3-----------------|



************************************

| /   slide up
| \   slide down
| h   hammer-on
| p   pull-off
| ~   vibrato
| +   harmonic
| x   Mute note
| b   Bend
| pb  Pre-bend
| br  Bend release
| pbr Pre-bend release
| brb Bend release bend

************************************
Добавлено: 02.04.2016
Другие материалы по этой песне:
  • Аккорды и текст

Страница создана 02.04.2016
http://primanota.ru/ellameno-beat/stone-cold-chords.htm
Привет, Гость.
Предлагаем пройти революционный курс по гитаре.
Подарок от PrimaNota.Ru, забирай!