PrimaNota.ru - самый крупный в мире бесплатный архив песенных текстов, аккордов, табулатур и нот


Ella Henderson - Im Not The Only One - таба, видео

Регистрация Запомнить меня
Войти через:  Facebook Google Twitter Vk Yandex Mail.ru

Ella Henderson - Im Not The Only One - таба, видео

Печатать
Просмотров: 107
Artist: Ella Henderson
Song: I'm Not The Only One


--> Capo: 2nd fret
--> Use percussive right hand technique

Intro - Main Riff
------------------------------

        E               G#7                   C#m         A

E||------------------------------------|-------0--------------0--------------|
B||------0-----------------------------|-------5-----------------0-----------|
G||-0h1----1------------5--5-----------|-------6----------6------------------|          
D||----------2----------4--4-----------|-------6----------7---------7--------|  x3
A||-2-------------------6--6-----------|-------4----------7------------------|
E||---------------------4--4-----------|------------------5------------------|


        E               A/B                     E

E||------------------------------------|---------------0---------------------|
B||------0--------------0--0-----------|------------------0------------------|
G||-0h1----1------------6--6-----------|-------0h1-----------1---------------|
D||----------2----------7--7-----------|-------2-----------------------------|
A||-2-------------------7--7-----------|-------2-----------------------------|
E||---------------------7--7-----------|-------0-----------------------------|

You and me, we made a vow
For better or for worse
I can't believe you let me down
But the proof's in the way it hurts

For months on end I've had my doubts
Denying every tear
I wish this would be over now
But I know that I still need you here

Chorus
----------

        E               G#7                   C#m         A

E||------------------------------------|-------0----------0------------------|
B||------0--0--------------------------|-------5----------0------------------|
G||------1--1-----------5--5-----------|-------6----------6------------------|          
D||------2--2-----------4--4-----------|-------6----------7------------------|  x2
A||------2--2-----------6--6-----------|-------4----------7------------------|
E||------0--0-----------4--4-----------|------------------5------------------|


        E               G#7                   C#m E/B     A

E||------------------------------------|-------0----------0------------------|
B||------0--0--------------------------|-------5---5------0------------------|
G||------1--1-----------5--5-----------|-------6---4------6------------------|
D||------2--2-----------4--4-----------|-------6---6------7------------------|
A||------2--2-----------6--6-----------|-------4---x------7------------------|
E||------0--0-----------4--4-----------|-----------7------5------------------|


        E               A/B                    E         A/B

E||------------------------------------|------------------0------------------|
B||------0--0--------------------------|-------0----------0------------------|
G||------1--1-----------6--6-----------|-------1----------6------------------|
D||------2--2-----------7--7-----------|-------2----------7------------------|
A||------2--2-----------7--7-----------|-------2----------7------------------|
E||------0--0-----------7--7-----------|-------0----------7------------------|

You say I'm crazy
'Cause you don't think I know what you've done
But when you call me baby
I know I'm not the only one


Main Riff
------------------------------

        E               G#7                   C#m         A

E||------------------------------------|-------0--------------0--------------|
B||------0-----------------------------|-------5-----------------0-----------|
G||-0h1----1------------5--5-----------|-------6----------6------------------|          
D||----------2----------4--4-----------|-------6----------7---------7--------|  x3
A||-2-------------------6--6-----------|-------4----------7------------------|
E||---------------------4--4-----------|------------------5------------------|


        E               A/B                     E

E||------------------------------------|---------------0---------------------|
B||------0--------------0--0-----------|------------------0------------------|
G||-0h1----1------------6--6-----------|-------0h1-----------1---------------|
D||----------2----------7--7-----------|-------2-----------------------------|
A||-2-------------------7--7-----------|-------2-----------------------------|
E||---------------------7--7-----------|-------0-----------------------------|

You've been so unavailable
Now sadly I know why
Your heart is unobtainable
Even though Lord knows you kept mine

Chorus
--------

        E               G#7                   C#m         A

E||------------------------------------|-------0--------------0--------------|
B||------0-----------------------------|-------5-----------------0-----------|
G||-0h1----1------------5--5-----------|-------6----------6------------------|          
D||----------2----------4--4-----------|-------6----------7---------7--------|  x3
A||-2-------------------6--6-----------|-------4----------7------------------|
E||---------------------4--4-----------|------------------5------------------|

        E               G#7                   C#m E/B     A

E||------------------------------------|-------0--------------0--------------|
B||------0-----------------------------|-------5---5-------------0-----------|
G||-0h1----1------------5--5-----------|-------6---4------6------------------|          
D||----------2----------4--4-----------|-------6---6------7---------7--------|  x2
A||-2-------------------6--6-----------|-------4---x------7------------------|
E||---------------------4--4-----------|-----------7------5------------------|


        E               A/B                     E           A/B

E||------------------------------------|-------------------------------------|
B||------0--------------0--0-----------|---------------------0---------------|
G||-0h1----1------------6--6-----------|-------0h1-----------6---------------|
D||----------2----------7--7-----------|-------2-------------7---------------|
A||-2-------------------7--7-----------|-------2-------------7---------------|
E||---------------------7--7-----------|-------0-------------7---------------|

You say I'm crazy
'Cause you don't think I know what you've done
But when you call me baby
I know I'm not the only one


         A                  E                 G#7            C#m   E/B

E||--0--0--0--0---------0--0--0--0-----|--4--4--4--4---------0--0------------|
B||--6--0--0--0---------0--0--0--0-----|--4--4--4--4---------5--5--5--5------|
G||--6--6--6--6---------1--1--1--1-----|--5--5--5--5---------6--6--4--4------|
D||--7--7--7--7---------2--2--2--2-----|--4--4--4--4---------6--6--6--6------|
A||--7--7--7--7---------2--2--2--2-----|--6--6--6--6---------4--4--x--x------|
E||--5--5--5--5---------0--0--0--0-----|--4--4--4--4---------------7--7------|

I have loved you for many years         Maybe I am just not enough


         A                  E                   E/B

E||--0--0--0--0---------0--0--0--0-----|-------0--0--0--0--0--0--0--0--------|
B||--6--0--0--0---------0--0--0--0-----|-------0--0--0--0--0--0--0--0--------|
G||--6--6--6--6---------1--1--1--1-----|-------6--6--6--6--6--6--6--6--------|
D||--7--7--7--7---------2--2--2--2-----|-------7--7--7--7--7--7--7--7--------|
A||--7--7--7--7---------2--2--2--2-----|-------7--7--7--7--7--7--7--7--------|
E||--5--5--5--5---------0--0--0--0-----|-------7--7--7--7--7--7--7--7--------|

You've made me realize my deepest fear  By lying and tearing us up

Chorus 2x
-----------
You say I'm crazy
'Cause you don't think I know what you've done
But when you call me baby
I know I'm not the only one

I know I'm not the only one
I know I'm not the only one
And I know...
I know I'm not the only one


Note: the A/B chord is played like this in the original:

E||---0---|
B||---5---|
G||---6---|
D||---7---|
A||---x---|
E||---7---|
Добавлено: 25.10.2015
Вам также может быть интересно:
Другие материалы по этой песне:
  • Аккорды и текст

Страница создана 25.10.2015
http://primanota.ru/ella-henderson/im-not-only-one-chords.htm
Привет, Гость.
Предлагаем пройти революционный курс по гитаре.
Подарок от PrimaNota.Ru, забирай!