PrimaNota.ru - самый крупный в мире бесплатный архив песенных текстов, аккордов, табулатур и нот


Elizabeth Cotten - When I Get Home - таба, видео

Регистрация Запомнить меня
Войти через:  Facebook Google Twitter Vk Yandex Mail.ru

Elizabeth Cotten - When I Get Home - таба, видео

Печатать
Просмотров: 102
This tab is all my own work

Elizabeth Cotten - When I Get Home

from Freight Train and Other North Carolina Folksongs
(Folkways)

Tabbed by Geoff Chan

Tuning : D A D F# A D 	Time Signature: 4/4

Play measures 1-32 three times and then the coda (33-40).

1

|       |       |       |        |       |       |       |
|--------------------------------|----------------0---------------|
|--------------------------------|0-------0---------------2-------|
|----------------0-------0-------|--------------------------------|
|0-------0-----------------------|--------------------------------|
|--------0---------------0-------|--------0---------------0-------|
|0---------------0---------------|0---------------0---------------|

3
|       |       |       |        |       |       |       |
|--------------------------------|--------------------------------|
|0-------------------------------|--------------------------------|
|----------------0---------------|--------------------------------|
|--------------------------------|2-------------------------------|
|--------0---------------0-------|--------0---------------0-------|
|0---------------0---------------|0---------------0---------------|

5
|       |       |       |        |       |       |       |
|--------------------------------|----------------0---------------|
|--------------------------------|0-------0---------------2-------|
|----------------0-------0-------|--------------------------------|
|0-------0-----------------------|--------------------------------|
|--------0---------------0-------|--------0---------------0-------|
|0---------------0---------------|0---------------0---------------|

7
|       |       |       |        |       |       |       |
|--------------------------------|--------------------------------|
|4---------------2---------------|0-------------------------------|
|--------------------------------|--------------------------------|
|--------------------------------|--------------------------------|
|--------0---------------0-------|--------0---------------0-------|
|0---------------0---------------|0---------------0---------------|

9
|       |       |       |        |       |       |       |
|--------------------------------|--------------------------------|
|--------------------------------|--------0-----------------------|
|0h--1---------------------------|0-----------------------0-------|
|------------2h--4p--0-----------|--------------------------------|
|--------0---------------0-------|--------0---------------0-------|
|0---------------0---------------|0---------------0---------------|

11
|       |       |       |        |       |       |       |
|--------------------------------|-------------------------------/|
|--------------------------------|--------0---------------0-------|
|0h--1---------------------------|0-------------------------------|
|------------2h--4p--0-----------|--------------------------------|
|--------0---------------0-------|--------0---------------0-------|
|0---------------0---------------|0---------------0---------------|

13
|       |       |       |        |       |       |       |
|4-------4-------0-------0-------|2-------0-----------------------|
|--------------------------------|------------------------2-------|
|--------------------------------|--------------------------------|
|--------------------------------|--------------------------------|
|--------0---------------0-------|--------0---------------0-------|
|0---------------0---------------|0---------------0---------------|

15
|       |       |       |        |       |       |       |
|--------------------------------|--------------------------------|
|0---------------4---------------|5-------------------------------|
|--------------------------------|------------------------0-------|
|--------------------------------|--------------------------------|
|--------0---------------0-------|--------0---------------0-------|
|0---------------0---------------|0---------------0---------------|

17
|       |       |       |        |       |       |       |
|--------------------------------|--------------------------------|
|0-------------------------------|0-----------------------0-------|
|----------------0---------------|--------------------------------|
|--------------------------------|--------------------------------|
|--------0---------------0-------|--------0---------------0-------|
|0---------------0---------------|0---------------0---------------|

19
|       |       |       |        |       |       |       |
|0-------------------------------|-------------------------------/|
|----------------2---------------|0-----------------------0-------|
|--------------------------------|--------------------------------|
|--------------------------------|--------------------------------|
|--------0---------------0-------|--------0---------------0-------|
|0---------------0---------------|0---------------0---------------|

21
|       |       |       |        |       |       |       |
|4-------4-------0-------0-------|2-------0-----------------------|
|--------------------------------|------------------------2-------|
|--------------------------------|--------------------------------|
|--------------------------------|--------------------------------|
|--------0---------------0-------|--------0---------------0-------|
|0---------------0---------------|0---------------0---------------|

23
|       |       |       |        |       |       |       |
|--------------------------------|--------------------------------|
|0-------------------------------|--------------------------------|
|----------------0---------------|------------------------0-------|
|--------------------------------|2-------------------------------|
|--------0---------------0-------|--------0---------------0-------|
|0---------------0---------------|0---------------0---------------|

25
|       |       |       |        |       |       |       |
|--------------------------------|--------------------------------|
|0-------------------------------|0-----------------------0-------|
|----------------0---------------|--------------------------------|
|--------------------------------|--------------------------------|
|--------0---------------0-------|--------0---------------0-------|
|0---------------0---------------|0---------------0---------------|

27
|       |       |       |        |       |       |       |
|0-------------------------------|-------------------------------/|
|----------------2---------------|0-----------------------0-------|
|--------------------------------|--------------------------------|
|--------------------------------|--------------------------------|
|--------0---------------0-------|--------0---------------0-------|
|0---------------0---------------|0---------------0---------------|

29
|       |       |       |        |       |       |       |
|4-------4-------0-------0-------|2-------0-----------------------|
|--------------------------------|------------------------2-------|
|--------------------------------|--------------------------------|
|--------------------------------|--------------------------------|
|--------0---------------0-------|--------0---------------0-------|
|0---------------0---------------|0---------------0---------------|

31
|       |       |       |        |       |       |       |
|--------------------------------|--------------------------------|
|0---------------4---------------|5-------------------------------|
|--------------------------------|------------------------0-------|
|--------------------------------|--------------------------------|
|--------0---------------0-------|--------0---------------0-------|
|0---------------0---------------|0---------------0---------------|
I               get              home


Coda

33
|       |       |       |        |       |       |       |
|--------------------------------|--------------------------------|
|0-------------------------------|0-----------------------0-------|
|----------------0---------------|--------------------------------|
|--------------------------------|--------------------------------|
|--------0---------------0-------|--------0---------------0-------|
|0---------------0---------------|0---------------0---------------|


35
|       |       |       |        |       |       |       |
|0-------------------------------|----------------------------2/--|
|----------------2---------------|0-----------------------0-------|
|--------------------------------|--------------------------------|
|--------------------------------|--------------------------------|
|--------0---------------0-------|--------0---------------0-------|
|0---------------0---------------|0---------------0---------------|


37
|       |       |       |        |       |       |       |
|4-------4-------0-------0-------|2-------0-----------------------|
|--------------------------------|------------------------2-------|
|--------------------------------|--------------------------------|
|--------------------------------|--------------------------------|
|--------0---------------0-------|--------0---------------0-------|
|0---------------0---------------|0---------------0---------------|


39
|       |       |       |        |       |       |       |
|--------------------------------|0-------------------------------|
|0---------------4---------------|0-------------------------------|
|--------------------------------|0-------------------------------|
|--------------------------------|0-------------------------------|
|--------0---------------0-------|0-------------------------------|
|0---------------0---------------|0-------------------------------|

_________________________________________________________________
     
Добавлено: 04.09.2013
Вам также может быть интересно:
Другие материалы по этой песне:

Страница создана 12.04.2012
http://primanota.ru/elizabeth-cotten/when-i-get-home-chords.htm
Привет, Гость.
Предлагаем пройти революционный курс по гитаре.
Подарок от PrimaNota.Ru, забирай!