PrimaNota.ru - самый крупный в мире бесплатный архив песенных текстов, аккордов, табулатур и нот


Elizabeth Cotten - Mama Your Papa Loves You - таба, видео

Регистрация Запомнить меня
Войти через:  Facebook Google Twitter Vk Yandex Mail.ru

Elizabeth Cotten - Mama Your Papa Loves You - таба, видео

Печатать
Просмотров: 112
----------------------------------------------------------------------------
              Mama, Your Papa Loves You - Elizabeth Cotten
----------------------------------------------------------------------------


Tabbed by: Dave S. 
Email: prime-prine@hotmail.com

Tuning: Standard



|-----------3-----|---3-------3-----|---3-------3-----|---3-------3-----|
|---0-------------|-----------------|-----------------|-----------------|
|-------0-------0-|-------0-------0-|-------0-------0-|-------0-------0-|
|-----0-------0---|-----0-------0---|-3---3---3---3---|-2---2---2---2---|
|-----------------|-----------------|-----------------|-----------------|
|-3-------3-------|-3-------3-------|-----------------|-----------------|


|---3-------3-----|---3---0---------|---0------------|--------------3-|
|-----------------|-----------0-----|-------0--------|----------0-----|
|-------0-------0-|---------------0h|=3---------3----|-0----0---------|
|-1---1---1---1---|-----0-------0---|----------------|----0-------0---|
|-----------------|-----------------|----------------|----------------|
|-----------------|-3-------3-------|-0---0---0---0--|-3------3-------|


|--------------|---3---0---------|---0------------|---------------|
|--------------|-----------0-----|-------0--------|----------0----|
|------------0-|---------------0h|=3---------3----|-0----0--------|
|----0-----0---|-----0-------0---|----------------|----0-------0--|
|--------------|-----------------|----------------|---------------|
|-3-----3------|-3-------3-------|-0---0---0---0--|-3------3------|


|-3-----------|-3--------3----|------0---------|-----------------|
|-------------|---------------|-3--------3-----|---0-------0-----|
|-------------|------0--------|--------------0h|=3-----3-------0-|
|----0-----0--|----0-------0--|----0-------0---|-----0-------0---|
|-------------|---------------|----------------|-----------------|
|-3-----3-----|-3------3------|-3------3-------|-3-------3-------|


|--------------|-------0---------|-------0---------|-----------------|
|--------------|---3-------3-----|---3-------3-----|---0-------0-----|
|------------0-|---------------0-|---------------0h|=3-----3-------0-|
|----0-----0---|-----0-------0---|-----0-------0---|-----0-------0---|
|--------------|-----------------|-----------------|-----------------|
|-3-----3------|-3-------3-------|-3-------3-------|-3-------3-------|


|----------------|--------------|-------0--------|---------------|
|----------0-----|--------------|---0------------|----------0----|
|------0h3-----2-|------------0h|=2---------0h2--|-0----0--------|
|----0-------0---|----0-----0---|-----0----------|----0-------0--|
|----------------|--------------|----------------|---------------|
|-3------3-------|-2-----2------|-2-------2---2--|-3------3------|


|-3--------------|--------------|-------0--------|---------------|
|----------0-----|--------------|---0------------|----------0----|
|------0h3-----2-|------------0h|=2---------0h2--|-0----0--------|
|----0-------0---|----0-----0---|-----0----------|----0-------0--|
|----------------|--------------|----------------|---------------|
|-3------3-------|-2-----2------|-2-------2---2--|-3------3------|


|-3-----------|-3--------3----|------0---------|-----------------|
|-------------|---------------|-3--------3-----|---0-------0-----|
|-------------|------0--------|--------------3-|-------3-------0-|
|----0-----0--|----0-------0--|----0-------0---|-----0-------0---|
|-------------|---------------|----------------|-----------------|
|-3-----3-----|-3------3------|-3------3-------|-3-------3-------|


|--------------|-------0---------|-------0---------|-------0----------|
|--------------|---3-------3-----|---3-------3-----|---0--------------|
|------------0-|---------------0-|---------------3-|-----------3b4----|
|----0-----0---|-----0-------0---|-----0-------0---|-----0---------0--|
|--------------|-----------------|-----------------|------------------|
|-3-----3------|-3-------3-------|-3-------3-------|-3-------3--------|


|----------------|----------------|-------0--------|---------------|
|----------0-----|---0------------|---0------------|----------0----|
|-0----0-------0h|=3-----3------3-|-----------0h3--|-0----0--------|
|----0-------0---|-----2------2---|-----2----------|----0-------0--|
|----------------|----------------|----------------|---------------|
|-3------3-------|-0-------0------|-0-------0---0--|-3------3------|


|-3----3--------|-----------------|-----------------|---------------|
|---------------|---0-------0-----|---0-------0---0-|----------0----|
|-------------0-|-------0-------0-|-------0---------|------0--------|
|----0------0-0h|=2---2-0h2---2-0h|=2---2-0h2-0h2---|----0-------0--|
|---------------|-----------------|-----------------|---------------|
|-3------3------|-0-------0-------|-0-------0---0---|-3------3------|


|-3----3--------|-----------------|-----------------|---------------|
|---------------|---0-------0-----|---0-----------0-|----------0----|
|-------------0-|-------0-------0-|-------0---0-----|------0--------|
|----0------0-0h|=2---2-0h2---2-0h|=2---2-0h2-0h2---|----0-------0--|
|---------------|-----------------|-----------------|---------------|
|-3------3------|-0-------0-------|-0-------0---0---|-3------3------|


|-3----3------3-|---0-------------|-------0--------|---------------|
|---------------|-------3---0-----|---0------------|----------0----|
|---------------|---------------3-|-----------3----|-0----0--------|
|----0------0---|-----0-------0---|-----0-------0--|----0-------0--|
|---------------|-----------------|----------------|---------------|
|-3------3------|-3-------3-------|-3-------3------|-3------3------|


|-3----3--------|----------0-----|-----------------|----------------|
|---------------|----------------|---0-------0-----|---0-------0----|
|-------------0h|=3----3-------0h|=3-----0h3-----0-|-------0--------|
|----0------0---|----2-------2---|-----2-------2---|-----0-------0--|
|---------------|----------------|-----------------|----------------|
|-3------3------|-0------0-------|-0-------0-------|-3-------3------|


|-3----3--------|-----------------|-------0--------|---------------|
|---------------|---0-------0-----|---0------------|----------0----|
|-------------0h|=3-----0h3-----0h|=3---------3----|-0----0--------|
|----0------0---|-----2-------2---|-----2----------|----0-------0--|
|---------------|-----------------|----------------|---------------|
|-3------3------|-0-------0-------|-0-------0---0--|-3------3------|


|-3--------------|--------------|-------0--------|---------------|
|----------0-----|--------------|---0------------|----------0----|
|------0h3-----2-|------------0h|=2---------0h2--|-0----0--------|
|----0-------0---|----0-----0---|-----0----------|----0-------0--|
|----------------|--------------|----------------|---------------|
|-3------3-------|-2-----2------|-2-------2---2--|-3------3------|


|-3--------------|--------------|-------0--------|---------------|
|----------0-----|--------------|---0------------|----------0----|
|------0h3-----2-|------------0h|=2---------0h2--|-0----0--------|
|----0-------0---|----0-----0---|-----0----------|----0-------0--|
|----------------|--------------|----------------|---------------|
|-3------3-------|-2-----2------|-2-------2---2--|-3------3------|


|-3----3--------|-----------------|-----------------|------------------|
|---------------|---1-------3-----|---1-------3-----|---1-------3------|
|-------------0-|-------0-------0-|-------0-------0h|=2-----2-------0h=|
|----0------0---|-----2-------2---|-----2-------2---|-----3-------3----|
|---------------|-----------------|-----------------|------------------|
|-3------3------|-3-------3-------|-3-------3-------|-1-------1--------|


|-----------------|---0-------3-----|-----------------|--------------|
|---1-------3-----|-----------------|-------0-------1-|--------------|
|-2-----2-------0-|-------0-------0-|---2-------0-----|----0---------|
|-----3-------3---|-----2-------2---|-----0-------3---|--------------|
|-----------------|-----------------|-----------------|-3-----0------|
|-1-------1-------|-3-------3-------|-3-------3-------|---------3-0--|


|-0----|
|-1----|
|-0----|
|-2----|
|-3----|
|-3----|


| /  slide up
| \  slide down
| h  hammer-on
| p  pull-off
| ~  vibrato
| +  harmonic
| x  Mute note
===========================================================================
Добавлено: 24.06.2012
Другие материалы по этой песне:

Страница создана 18.04.2012
http://primanota.ru/elizabeth-cotten/mama-your-papa-loves-you-chords.htm
Привет, Гость.
Предлагаем пройти революционный курс по гитаре.
Подарок от PrimaNota.Ru, забирай!