PrimaNota.ru - самый крупный в мире бесплатный архив песенных текстов, аккордов, табулатур и нот


Elizabeth Cotten - Freight Train - аккорды и текст, таба, видео

Регистрация Запомнить меня
Войти через:  Facebook Google Twitter Vk Yandex Mail.ru

Elizabeth Cotten - Freight Train - аккорды и текст, таба, видео

Печатать
Просмотров: 267
Авторы: Elizabeth Cotten, Frederick Williams, Paul James

Freight Train
Elizabeth Cotten
----------------------------------------------------------------------------
                   Freight Train - Elizabeth Cotten
----------------------------------------------------------------------------


Tabbed by: Dave S. 
Email: prime-prine@hotmail.com

Tuning: Standard


C                           G      G7
Freight train Freight train run so fast
Dm            G             C
Freight train Freight train run so fast
E7                     *F    G   F
Please don't tell what train I'm on
           C         G          C
They won't know what route I've gone


C                  G     G7
When I am dead and in my grave
Dm      G          C
No more good times here I crave
E7                     *F   G   F
Place the stones at my head and feet
          C             G       C
Tell them all that I've gone to sleep.


C               G       G7
When I die Lord bury me deep
Dm       G      C
Way down on old Chestnut street
E7                 *F  G   F
Then I can hear old Number 9
   C         G       C
As she comes rolling by.


Chords

     C       G       G7      Dm      E7     *F       F    
e|---0---|---3---|---1---|---1---|---0---|-------|---1---|
B|---1---|---0---|---0---|---3---|---0---|---1---|---1---|
G|---0---|---0---|---0---|---2---|---1---|---2---|---2---|
D|---2---|---0---|---0---|---0---|---0---|---3---|---3---|
A|---3---|---2---|---2---|-------|---2---|---0---|---3---|
E|---3---|---3---|---3---|-------|---0---|-------|---1---|
Добавлено: 08.04.2012
Другие материалы по этой песне:

Страница создана 27.02.2012
http://primanota.ru/elizabeth-cotten/freight-train-chords.htm
Привет, Гость.
Предлагаем пройти революционный курс по гитаре.
Подарок от PrimaNota.Ru, забирай!