PrimaNota.ru - самый крупный в мире бесплатный архив песенных текстов, аккордов, табулатур и нот


Elisha Hoffman - Leaning On The Everlasting Arms - таба, видео

Регистрация Запомнить меня
Войти через:  Facebook Google Twitter Vk Yandex Mail.ru

Elisha Hoffman - Leaning On The Everlasting Arms - таба, видео

Печатать
Просмотров: 61
-------------------------------------------------------------------------------
               leaning on the everlasting arms - Elisha Hoffman
-------------------------------------------------------------------------------
Tabbed by:
E-mail:
key of G
Tuning:E-A-D-G-B-e

e|-----------------------------------------------------------------------2-----------|
B|0----0----0-------------------------------------------------0---0-----3-3-0---0----|
G|------------2--0-----2----2----2-0---------------0------0-2---0---0--2-------------|
D|--0----0---------------2----2-------2----0----0------4----------0----0------0---0--|
A|-----------------2---3----3----3-3--3-3--2----2------------------------------------|
E|3----3----3----3---------------------------------3---3--3---3-------------3---3----|
  what have I to dread what have I to fear leaning on the everlasting arms  I   have 
e|-----------------------------------------------------------------------------------|
B|-------------------------------------------------------0---------------------------|
G|2-0------------2---2---0-------------------0------0-2------2---0--0----------------|
D|-----------------2---2-----2-------0---0-------4----0----0-0-0---0-----------------|
A|---------2-----3---3---3---3--3----2---2------------------------2------------------|
E|--3----------------------------------------3---3--3----3-------3-------------------|
  blessed peace with my Lord so near leaning on the everlasting  arms
e|----------------------------------------------------------2----------------------------------|
B|------0------------------------------------------0---0---3-3-0-------------------------------|
G|---------0-0--0-0---0-------------0-----0----2----------2-------0-0--0-0---0---------------0-|
D|--------0----0-----2--2---2-0--------4-------0----0---0-0------0----0-----2--2---2-0-0-------|
A|-------2----2---3-3------2------------------------------------2----2---3-3------2------------|
E|------3----3----------3-3---3-----3--3--3--------3---3-------3----3----------3-3---3-3-------|
chorus: leaning   leaning     safe and secure from all alarms  leaning   leaning     leaning on 
e|-----------------------------------------------------------------------------------|
B|---------0-------------------------------------------------------------------------|
G|----0-2------2--0--0---------------------------------------------------------------|
D|-4---------0-0----0----------------------------------------------------------------|
A|--------------0--2-----------------------------------------------------------------|
E|-3-------3------3------------------------------------------------------------------|
  the everlasting arms
e|-----------------------------------------------------------------------------------------2------------|
B|--0-----0-----0-0-------------------------------------------------------0-----0---------3-3---3-0-----|
G|------0-----0-------2-0----2-----2-----2-----0----------------0-----0-2-----0-----0--2-2---2-2------0-|
D|----0-----0-------0------0---2-----2-----2-----2-0---0----0------4--------0-----0----0------0-----0---|
A|------------------------2--3-----3-----3-----3-3---3-2----2-----------2-------------------------------|
E|--3-----3-----3-3-----3--------0-----0------------------------3--3--3---3-----3-----------------3-----|
  what    a       fellowship what  a     joy divine    leaning on the everlasting    arms         what    
e|---------------------------------------------------------------------------------3|
B|0-----0--------------------------------------------------------0------------------|
G|----0-----2-0-----2-----2-----2------0---------------0-----0-2-----0-2-----0------|
D|--0-----0-------0---2-----2-----2------2-0----0--0------4--------0-----2-------0--|
A|--------------2---3-----3-----3------3-3---3--2--2-----------2-------3---3---2----|
E|3-----3-----3---------0-----0------------------------3--3--3---3-----------3------|
  A     blessedness what  a     peace is mine leaning on the everlasting    arms 
e|-----------------------------------------------------------------------2----------------------------------|
B|------0----------------------------------------------------0---0------3-3--0------------------------------|
G|--------0-0-0-0-0-0-0-0-0-0-0--------------0------0----2-----0---0-2-2---2---0-0-0-0-0-0-0-0-0-0-0--------|
D|-------0-0-0---0-0-0---2-2-2-2-2-2-2--0--------4--0----0----0---0--0--------0-0-0---0-0-0---2-2-2-2-2-2-2-|
A|----------------------3-------3-3-3-3------2---3-------------------------------------------3-------3-3-3-3|
E|------3-------3--------------3--------3--------------------3---3-----------3-------3--------------3-------|
chorus: lea - ning      lea - ning     safe and secure from all alarms       lea - ning      lea - ning 
e|-----------------------------------------3---------------------------------|
B|-------------------0-----------------0-3-3---------------------------------|
G|---------0-----0-2---0-2-----0-----0-----0---------------------------------|
D|-0--0-------4-------0----0-------0-------0---------------------------------|
A|-2--2------------2-----3--0----2---------2---------------------------------|
E|---------3--3--3---3---------3-----------3---------------------------------|
  leaning on the everlasting  arms

verse 2:
Oh how sweet to walk in the pilgrim way 
leaning on the everlasting arms 
oh how bright the path grows from day to day 
leaning on the everlasting arms 

repeat chorus

************************************

| /   slide up
| \   slide down
| h   hammer-on
| p   pull-off
| ~   vibrato
| +   harmonic
| x   Mute note
| b   Bend
| pb  Pre-bend
| br  Bend release
| pbr Pre-bend release
| brb Bend release bend

************************************
Добавлено: 18.06.2016
Другие материалы по этой песне:
  • Аккорды и текст

Страница создана 18.06.2016
http://primanota.ru/elisha-hoffman/leaning-on-everlasting-arms-chords.htm
Привет, Гость.
Предлагаем пройти революционный курс по гитаре.
Подарок от PrimaNota.Ru, забирай!