PrimaNota.ru - самый крупный в мире бесплатный архив песенных текстов, аккордов, табулатур и нот


Elio E Le Storie Tese - Shpalman (assolo) - таба, видео

Регистрация Запомнить меня
Войти через:  Facebook Google Twitter Vk Yandex Mail.ru

Elio E Le Storie Tese - Shpalman (assolo) - таба, видео

Печатать
Просмотров: 120
		   Artista: Elio E Le Storie Tese
Canzone: Shpalman
Album: Cicciput
Tabber: Peppos


Ciao a tutti. Ho trascritto una mia interpretazione dell'assolo finale di questa canzone.
Credo che al 90% sia giusta.

e|-----------------------------------------12--12p10p9-------------|
B|-------7-10-7-----------9-12-9----------------------12p10p9------|
G|---5/7--------9-7---7/9--------11b-9--11b------------------11p9--|
D|-----------------------------------------------------------------|
A|-----------------------------------------------------------------|
E|-----------------------------------------------------------------|

e|-----------------------------------------------------------------|
B|----------------------20b22r20-18-20/22-----7-10---9-11----------|
G|---16b18r16-14-16/18----------------------7------9------9-9/14---|
D|-----------------------------------------------------------------|
A|-----------------------------------------------------------------|
E|-----------------------------------------------------------------|

Aspetto commenti e suggerimenti per eventuali correzioni! peppos@hotmail.com

                                                                             "PePPoS"	     
Добавлено: 13.10.2013
Другие материалы по этой песне:
  • Аккорды и текст

Страница создана 13.10.2013
http://primanota.ru/elio-e-le-storie-tese/shpalman-assolo-chords.htm
Привет, Гость.
Предлагаем пройти революционный курс по гитаре.
Подарок от PrimaNota.Ru, забирай!