PrimaNota.ru - самый крупный в мире бесплатный архив песенных текстов, аккордов, табулатур и нот


Elias - All We Want - таба, видео

Регистрация Запомнить меня
Войти через:  Facebook Google Twitter Vk Yandex Mail.ru

Elias - All We Want - таба, видео

Печатать
Просмотров: 132
Guitar Standard Tuning
E A D G B E

Capo 4th Fret

Intro (piano part)
----------------------|
----------------------|
----------------------|
---------5--3---------|
-5--3----3--1---------|
-3--1-----------------|

Leading to pre-verse...
-----------------|
-----------------|
--------0--------| X8
-----2-----------|
--0--------------|
-----------------|
Pre-Verse
-----------------------------------|
-----------------------------------|
--7p-5-5--2p-0-0-------------------|
-----------------2p-0-0------------|
------------------------3p-0-0-----|
-----------------------------------|
                                     X2
-----------------------------------|
-----------------------------------|
--7p-5-5--2p-0-0------------0------|
-----------------2p-0-0------------|
-------------------------3^--------|
-----------------------------------|

-----------------|
-----------------|
--------0--------| X28
-----2-----------|
--0--------------|
-----------------|

-----------------|
--------3--------|
-----------------| X4
-----2-----------|
--0--------------|
-----------------|

Pre-Chorus
-----------------------------------|
-----------------------------------|
--7p-5-5--2p-0-0-------------------|
-----------------2p-0-0------------|
------------------------3p-0-0-----|
-----------------------------------|
                                     X1
-----------------------------------|
-----------------------------------|
--7p-5-5--2p-0-0------------0------|
-----------------2p-0-0------------|
-------------------------3^--------|
-----------------------------------|

Chorus
-----------------------------------|
-----------------------------------|
-----------------------------------|
-----3----------5-----3------------|
--5--1--3-------3--3--1------------|
--3-----1----------1---------------|

-----------------|
-----------------|
--------0--------| X8
-----2-----------|
--0--------------|
-----------------|

-----------------------------------|
-----------------------------------|
--7p-5-5--2p-0-0-------------------|
-----------------2p-0-0------------|
------------------------3p-0-0-----|
-----------------------------------|
                                     X2
-----------------------------------|
-----------------------------------|
--7p-5-5--2p-0-0------------0------|
-----------------2p-0-0------------|
-------------------------3^--------|
-----------------------------------|

-----------------|
-----------------|
--------0--------| X16
-----2-----------|
--0--------------|
-----------------|

Chorus
-----------------------------------|
-----------------------------------|
-----------------------------------|
-----3----------5-----3------------|
--5--1--3-------3--3--1------------|
--3-----1----------1---------------|

Ends On
-----------------------------------|
-----------------------------------|
-----------------------------------|
-------------5---------------------|
-------------3---------------------|
-----------------------------------|
Добавлено: 13.04.2012
Вам также может быть интересно:
Другие материалы по этой песне:
  • Аккорды и текст

Страница создана 13.04.2012
http://primanota.ru/elias/all-we-want-chords.htm
Привет, Гость.
Предлагаем пройти революционный курс по гитаре.
Подарок от PrimaNota.Ru, забирай!