PrimaNota.ru - самый крупный в мире бесплатный архив песенных текстов, аккордов, табулатур и нот


Elias Viljanen - Northern Storm - таба, видео

Регистрация Запомнить меня
Войти через:  Facebook Google Twitter Vk Yandex Mail.ru

Elias Viljanen - Northern Storm - таба, видео

Печатать
Просмотров: 100
Artist: Elias Viljanen
Song: Northern Storm
Tuning: Half step down; eb,Bb,Gb,Db,Ab,Eb
Tabbed by:camillamazilla


Those /-3-\ I've put above some notes are 3 tuplets. So notes under the mark are played 
faster than sixteenth notes.


  eb|-7-0-8-0-5-7-0-3-5-0-2-0-3-0-2-3--|
  Bb|----------------------------------|
  Gb|----------------------------------|
  Db|----------------------------------| Guitar 1
  Ab|----------------------------------|
  Eb|----------------------------------|
    |                                  |
    |                                  |
  eb|----------------------------------|
  Bb|----------------------------------|
  Gb|----------------------------------| Guitar 2
  Db|-2--------------------------------|
  Ab|-2--------------------------------|
  Eb|-0--------------------------------|


                              /-3-\  /--3--\

  eb|-7-0-8-0-5-7-0-3-5-0-2-0-10-8-7---------|
  Bb|--------------------------------10-8-7--|
  Gb|----------------------------------------|
  Db|----------------------------------------| Guitar 1
  Ab|----------------------------------------|
  Eb|----------------------------------------|
    |                                        |
    |                           /----3----\  |
  eb|----------------------------------------|
  Bb|----------------------------------------|
  Gb|----------------------------------------|
  Db|-2-------------------------7-7-7-7-7-7--| Guitar 2
  Ab|-2-------------------------5-5-5-5-5-5--|
  Eb|-0--------------------------------------|

  eb|-7-0-8-0-5-7-0-3-5-0-2-0-3-0-2-3--|
  Bb|----------------------------------|
  Gb|----------------------------------|
  Db|----------------------------------| Guitar 1
  Ab|----------------------------------|
  Eb|----------------------------------|
    |                                  |
    |                                  |
  eb|----------------------------------|
  Bb|----------------------------------|
  Gb|----------------------------------| Guitar 2
  Db|-5--------------------------------|
  Ab|-3--------------------------------|
  Eb|----------------------------------|

                      /-3-\ /-3-\ /-3-\  /-3-\
  eb|-7-0-8-0-5-7-0(3)------5-7-8--------7-8-10------------|
  Bb|---------------8-5-7-8-------7-8-10-------------------|
  Gb|------------------------------------------------------|
  Db|------------------------------------------------------| Guitar 1
  Ab|------------------------------------------------------|
  Eb|------------------------------------------------------|
    |                                                      |
    |                 /-3-\ /-3-\ /-3-\  /-3-\             |
  eb|------------------------------------------------------|
  Bb|------------------------------------------------------|
  Gb|------------------------------------------------------|
  Db|-2----------------------------------------------------| Guitar 2
  Ab|-2---------------3-3-3-3-3-3-5-5-5.-5-5-5.------------|
  Eb|-0----------------------------------------------------|


  eb|-7-0-8-0-5-7-0-3-5-0-2-0-3-0-2-3--|
  Bb|----------------------------------|
  Gb|----------------------------------|
  Db|----------------------------------| Guitar 1
  Ab|----------------------------------|
  Eb|----------------------------------|
    |                                  |
    |                                  |
  eb|----------------------------------|
  Bb|----------------------------------|
  Gb|----------------------------------| Guitar 2
  Db|-2--------------------------------|
  Ab|-2--------------------------------|
  Eb|-0--------------------------------|


                              /-3-\  /--3--\

  eb|-7-0-8-0-5-7-0-3-5-0-2-0-10-8-7---------|
  Bb|--------------------------------10-8-7--|
  Gb|----------------------------------------|
  Db|----------------------------------------| Guitar 1
  Ab|----------------------------------------|
  Eb|----------------------------------------|
    |                                        |
    |                           /----3----\  |
  eb|----------------------------------------|
  Bb|----------------------------------------|
  Gb|----------------------------------------|
  Db|-2-------------------------7-7-7-7-7-7--| Guitar 2
  Ab|-2-------------------------5-5-5-5-5-5--|
  Eb|-0--------------------------------------|

  eb|-7-0-8-0-5-7-0-3-5-0-2-0-3-0-2-3--|
  Bb|----------------------------------|
  Gb|----------------------------------|
  Db|----------------------------------| Guitar 1
  Ab|----------------------------------|
  Eb|----------------------------------|
    |                                  |
    |                                  |
  eb|----------------------------------|
  Bb|----------------------------------|
  Gb|----------------------------------| Guitar 2
  Db|-5--------------------------------|
  Ab|-3--------------------------------|
  Eb|----------------------------------|

                      /--3--\ /--3--\   /--3--\  /--3--\
  eb|-7-0-8-0-5-7-0(3)--------5.-7.-8-----------7.--8-10-|-12---|
  Bb|---------------8-5.-7.-8-----------7.-8.-10---------|------|
  Gb|----------------------------------------------------|------|
  Db|----------------------------------------------------|------| Guitar 1
  Ab|----------------------------------------------------|------|
  Eb|----------------------------------------------------|------|
    |                                                    |      |
    |                 /--3--\  /--3--\  /--3--\  /--3--\ |      |
  eb|--------------------------12-14-15---------14-15-17-|-19---|
  Bb|-----------------12-14-15----------14-15-17---------|------|
  Gb|----------------------------------------------------|------|
  Db|-2--------------------------------------------------|------| Guitar 2
  Ab|-2--------------------------------------------------|------|
  Eb|-0--------------------------------------------------|------|
Добавлено: 19.04.2012
Вам также может быть интересно:
Другие материалы по этой песне:
  • Аккорды и текст

Страница создана 19.04.2012
http://primanota.ru/elias-viljanen/northern-storm-chords.htm
Привет, Гость.
Предлагаем пройти революционный курс по гитаре.
Подарок от PrimaNota.Ru, забирай!