PrimaNota.ru - самый крупный в мире бесплатный архив песенных текстов, аккордов, табулатур и нот


Elias Viljanen - Lord Of The Strings - таба, видео

Регистрация Запомнить меня
Войти через:  Facebook Google Twitter Vk Yandex Mail.ru

Elias Viljanen - Lord Of The Strings - таба, видео

Печатать
Просмотров: 106
Artist: Elias Viljanen
Song: Lord of the Strings
Album: The Leadstar
Eb Tuning ( Eb Bb Gb Db AB EB)
Tabbed by drawnacrol

Watch my split-screen cover video: 
http://www.youtube.com/watch?v=tqMfwRI0f7k

Guitar 1: Lead Melody

|-----------------|-----------------|-----------------|------------------|
|----17-----------|--(17)----17\12--|--(12)/15--------|---(15)-----------|
|-----------------|-----------------|-----------------|------------------|
|-----------------|-----------------|-----------------|------------------|
|-----------------|-----------------|-----------------|------------------|
|-----------------|-----------------|-----------------|------------------|

|-----------------|-----------------|-----------------|------------------|
|----15-----------|--(15)----15\10--|--(10)/13--------|---(13)-----------|
|-----------------|-----------------|-----------------|------------------|
|-----------------|-----------------|-----------------|------------------|
|-----------------|-----------------|-----------------|------------------|
|-----------------|-----------------|-----------------|------------------|

|-----------------|-----------------|------------------|-----------------|
|----12b(13)------|--(13)----15\10--|--(10)/12---------|---(12)----------|
|-----------------|-----------------|---------\--------|-----------------|
|-----------------|-----------------|------------\---(Dive Bomb)---------|
|-----------------|-----------------|---------------\--|-----------------|
|-----------------|-----------------|-----------------\|-----------------|

|-----------------|-----------------|-----------------|------------------|
|----9------------|--(9)-----11\6---|--(6)/8----------|---(8)------------|
|-----------------|-----------------|-----------------|------------------|
|-----------------|-----------------|-----------------|------------------|
|-----------------|-----------------|-----------------|------------------|
|-----------------|-----------------|-----------------|------------------|

The next section is played under the sweep arpeggio medley,
its the same as the last 16 bars but with a wah pedal and some variations:

|-----------------|-----------------|-----------------|------------------|
|----17-----------|--(17)----17\12--|--(12)/15--------|---(15)-----------|
|-----------------|-----------------|-----------------|------------------|
|-----------------|-----------------|-----------------|------------------|
|-----------------|-----------------|-----------------|------------------|
|-----------------|-----------------|-----------------|------------------|

|-----------------|-----------------|-----------------|------------------|
|----15-----------|--(15)----15\10--|--(10)/13--------|---(13)-----------|
|-----------------|-----------------|-----------------|------------------|
|-----------------|-----------------|-----------------|------------------|
|-----------------|-----------------|-----------------|------------------|
|-----------------|-----------------|-----------------|------------------|

|-----------------|-----------------|-----------------|--------------------|
|----13-----------|--(13)----15\10--|--(10)/12---------|---(12)------------|
|-----------------|-----------------|-----------------|--------------------|
|-----------------|-----------------|-----------------|--------------------|
|-----------------|-----------------|-----------------|--------------------|
|-----------------|-----------------|-----------------|--------------------|

|-----------------|-----------------|-----------------|------------------|
|----9------------|--(9)-----11\6---|--(6)/8----------|---(8)------------|
|-----------------|-----------------|-----------------|------------------|
|-----------------|-----------------|-----------------|------------------|
|-----------------|-----------------|-----------------|------------------|
|-----------------|-----------------|-----------------|------------------|

Guitar 2: Arpeggio Melody

|--------15h19t20p19p15----------15h19t20p19p15-----|--------------------|
|-----17----------------17----17----------------17--|--------------------|
|--16----------------------16-----------------------|--------------------|
|---------------------------------------------------|---(Repeat)---------|
|---------------------------------------------------|--------------------|
|---------------------------------------------------|--------------------|

|--------------------14h19t22p19p14-----------------|--------------------|
|-----------------15----------------15--------------|--------------------|
|--------11/14-16----------------------16-12\11-----|--------------------|
|-----12----------------------------------------12--|---(Repeat)---------|
|--14-----------------------------------------------|--------------------|
|---------------------------------------------------|--------------------|

|--------13h17t18p17p13----------13h17t18p17p13-----|--------------------|
|-----15----------------15----15----------------15--|--------------------|
|--14----------------------14-----------------------|--------------------|
|---------------------------------------------------|---(Repeat)---------|
|---------------------------------------------------|--------------------|
|---------------------------------------------------|--------------------|

|--------------------12h17t20p17p12-----------------|--------------------|
|-----------------13----------------13--------------|--------------------|
|---------9/12-14----------------------14-12\9------|--------------------|
|-----10----------------------------------------10--|---(Repeat)---------|
|--12-----------------------------------------------|--------------------|
|---------------------------------------------------|--------------------|

|--------12h15t16p15p12----------12h15t16p15p12-----|--------------------|
|-----13----------------13----13----------------13--|--------------------|
|--12----------------------12-----------------------|--------------------|
|---------------------------------------------------|---(Repeat)---------|
|---------------------------------------------------|--------------------|
|---------------------------------------------------|--------------------|

|--------------------11h16t19p16p11-----------------|--------------------|
|-----------------12----------------12--------------|--------------------|
|---------8/11-13----------------------13-11\8------|--------------------|
|------9----------------------------------------9---|---(Repeat)---------|
|--11-----------------------------------------------|--------------------|
|---------------------------------------------------|--------------------|

|---------7h10t11p10p7----------7h10t11p10p7--------|
|------9----------------9----9----------------9-----|
|--10---------------------10------------------------|
|---------------------------------------------------|
|---------------------------------------------------|
|---------------------------------------------------|

|---------7h10t13p10p7----------7h10t16p10p7--------|
|------9----------------9----9----------------9-----|
|--10---------------------10------------------------|
|---------------------------------------------------|
|---------------------------------------------------|
|---------------------------------------------------|

|--------15h19t23p19p15-----------15h19t23p19p15------|
|-----16----------------16----16-----------------16---|
|--19----------------------19-------------------------|
|-----------------------------------------------------|
|-----------------------------------------------------|
|-----------------------------------------------------|

|--------15h19t22p19p15-----------15h19t22p19p15------|
|-----16----------------16----16-----------------16---|
|--19----------------------19-------------------------|
|-----------------------------------------------------|
|-----------------------------------------------------|
|-----------------------------------------------------|

|--------15h19t23p19p15-----------15h19t23p19p15------|
|-----16----------------16----16-----------------16---|
|--19----------------------19-------------------------|
|-----------------------------------------------------|
|-----------------------------------------------------|
|-----------------------------------------------------|

|--------15h19t22p19p15-----------15h19t22p19p15------|
|-----16----------------16----16-----------------16---|
|--19----------------------19-------------------------|
|-----------------------------------------------------|
|-----------------------------------------------------|
|-----------------------------------------------------|

|---15---------------------------------|
|--------(Slow-Dive Bomb)--------------|
|---13---------------------------------|
|--------------------------------------|
|--------------------------------------|
|--------------------------------------|
Добавлено: 16.03.2012
Другие материалы по этой песне:

Страница создана 16.03.2012
http://primanota.ru/elias-viljanen/lord-of-the-strings-chords.htm
Привет, Гость.
Предлагаем пройти революционный курс по гитаре.
Подарок от PrimaNota.Ru, забирай!