PrimaNota.ru - самый крупный в мире бесплатный архив песенных текстов, аккордов, табулатур и нот


Elias Viljanen - Follow The Leader - таба, видео

Регистрация Запомнить меня
Войти через:  Facebook Google Twitter Vk Yandex Mail.ru

Elias Viljanen - Follow The Leader - таба, видео

Печатать
Просмотров: 105
-------------------------------------------------------------------------------
                             Follow The Leader - Elias Viljanen
-------------------------------------------------------------------------------
Tabbed by: Joel "joeya" Åkerlind
Email: joeya@hotmail.com

Tuning: Half-step down

Acustic steel guitar    reapet x2
eb|------------------------------0--------------------------------------------|
Bb|--------------------------------0------------------------------------------|
Gb|-------3-4-1---------3-4-1--------3--------3-4-1----------2-------0--------|
Db|-----2-------------2-------4-------------2-------------0---------3---------|
Ab|---2-------------2---------------------2------------2----------3-----------|
Eb|-0-------------0---------------------0------------3----------3-------------|

Distorted guitar reapet x2
eb|-------------------------------------------------------------------------|
Bb|-------------------------------------------------------------------------|
Gb|-------3-4/-11--------3-4/11/-15\-11--------3-4/-11-16-16½-15-p13\-11----|
Db|-----2-------------2----------------------2------------------------------|
Ab|---2-------------2----------------------2--------------------------------|
Eb|-0-------------0----------------------0----------------------------------|

reapet x2
eb|-----------------------21-23-24-24-24½-23-24^-24^-23-21------------------|
Bb|-------------21-23-24----------------------------------------------------|
Gb|-16-20-21-23-------------------------------------------------------------|
Db|-------------------------------------------------------------------------|
Ab|-------------------------------------------------------------------------|
Eb|-------------------------------------------------------------------------|

| ^  whole step bend
| ½  half step bend
| /  slide up
| \  slide down
| h  hammer-on
| p  pull-off
| ~  vibrato
| +  harmonic
| x  Mute note
===============================================================================
Добавлено: 25.02.2012
Другие материалы по этой песне:
  • Аккорды и текст

Страница создана 25.02.2012
http://primanota.ru/elias-viljanen/follow-the-leader-chords.htm
Привет, Гость.
Предлагаем пройти революционный курс по гитаре.
Подарок от PrimaNota.Ru, забирай!