PrimaNota.ru - самый крупный в мире бесплатный архив песенных текстов, аккордов, табулатур и нот


Elias Viljanen - Fire-hearted - таба

Регистрация Запомнить меня
Войти через:  Facebook Google Twitter Vk Yandex Mail.ru

Elias Viljanen - Fire-hearted - таба

Печатать
Просмотров: 116
-------------------------------------------------------------------------------
                             FIRE-HEARTED - Elias Viljanen
-------------------------------------------------------------------------------
Tabbed by: Dragozan
Email: coopercoe@hotmail.com

Tuning: Eb,Ab,Db,Gb,Bb,Eb

This song is in Eb Mixolydian for you Theory Junkies :)

(0:14)
e|-----------12--------------------12----22b24-------10-10--9-9--------------|
B|-----10-12-----------------10-12-------------------------------12-12--10-10|
G|--9----------------------9-------------------------------------------------|
D|---------------------------------------------------------------------------|
A|---------------------------------------------------------------------------|
E|---------------------------------------------------------------------------|
                              (0:27)
e|--10-10--9-9---------------------------------------------------------------|
B|--------------12-10~-------------10-12-14-----------10-12-14--12-12--10/12-|
G|-----------------------------9--------------------9------------------------|
D|---------------------------------------------------------------------------|
A|---------------------------------------------------------------------------|
E|---------------------------------------------------------------------------|

(0:40)
e|---------------------------------------------------------------------------|
B|-----10-12-14--12-12--9-10/12~---------------------------------------------|
G|--9------------------------------11-11--9-9--7/9---------------------------|
D|---------------------------------------------------------------------------|
A|---------------------------------------------------------------------------|
E|---------------------------------------------------------------------------|

e|---------------------------------------------------------------------------|
B|-----10-12-14-------------10-12-14--15-14-12--10/12~-----------------------|
G|--9--------------------9---------------------------------------------------|
D|---------------------------------------------------------------------------|
A|---------------------------------------------------------------------------|
E|---------------------------------------------------------------------------|

(0:48) FAST! (Not 100% sure on this bit, but it sounds right)
e|---9h10h12p10p9------------------------------------------------------------|
B|----------------15p14p12-14p12p10-12p10p8-10--12-12~-----------------------|
G|---------------------------------------------------------------------------|
D|---------------------------------------------------------------------------|
A|---------------------------------------------------------------------------|
E|---------------------------------------------------------------------------|
(0:50)
e|----------------------9h10h12-10h12-14---16b18-18br16--16-10-12~-----------|
B|---10h12h14-12h114h15------------------------------------------------------|
G|---------------------------------------------------------------------------|
D|---------------------------------------------------------------------------|
A|---------------------------------------------------------------------------|
E|---------------------------------------------------------------------------|

(0:54) Chorus
e|--10b-10b-10~---10-9----9----------------------------------------------------------|
B|---------------------12----9--10~-------9--10--------------------------------------|
G|-----------------------------------11---------11---9/11\9~-------------------------|
D|-----------------------------------------------------------------------------------|
A|-----------------------------------------------------------------------------------|
E|-----------------------------------------------------------------------------------|

That's all i have so far guys. I'll keep editing this with extra bits when i nail em. Thanks :)

************************************

| /   slide up
| \   slide down
| h   hammer-on
| p   pull-off
| ~   vibrato
| +   harmonic
| x   Mute note
| b   Bend
| pb  Pre-bend
| br  Bend release
| pbr Pre-bend release
| brb Bend release bend

************************************
Добавлено: 23.07.2012
Другие материалы по этой песне:
  • Аккорды и текст

Страница создана 23.07.2012
http://primanota.ru/elias-viljanen/fire-hearted-chords.htm
Привет, Гость.
Предлагаем пройти революционный курс по гитаре.
Подарок от PrimaNota.Ru, забирай!