PrimaNota.ru - самый крупный в мире бесплатный архив песенных текстов, аккордов, табулатур и нот


Eli - King Of The Hill - таба, видео

Регистрация Запомнить меня
Войти через:  Facebook Google Twitter Vk Yandex Mail.ru

Eli - King Of The Hill - таба, видео

Печатать
Просмотров: 202
		   Eli- King of the Hill
Things I Prayed For
Copyright 1998 Songs on The ForeFront Music
Tabbed by Josh Gardner (cuinheaven@alloymail.com &
http://fly.to/ChristChat)
after Derrick Charles (derrick26@usa.net,
http://freeweb.digiweb/music/dco)

The last one had a few mistakes, and I added the lyrics at the bottom
(the
tabs in parenthases () are optional, I like to have them there cause it
makes the song sound fuller)

Tab 1--Intro verses, and chorus:
e|----0--(0)---0--(0)----------0--------------------------
A|------0-(0)----0-(0)------------------------------------
G|-------------------------1h2---1------------------------
B|-----------------------------------2--------------------
A|-4-----------0------------------------------------------
E|-----------------------0--------------------------------

Tab 2--Play this where marked (this isn't right, its as close as I can
get)
e|----0--(0)---0--(0)-----0--(0)----0--(0)----0--(0)------
A|------0-(0)----0-(0)------0-(0)-----0-(0)-----0-(0)-----
G|--------------------------------------------------------
B|--------------------------------------------------------
A|-4----------4---------2----------2--------4----------2--
E|--------------------------------------------------------

Tab 3--Ending:
e|----0--------0---------------0--0-----------------------
A|------0--------0----------------0-----------------------
G|-------------------------1h2----1-----------------------
B|--------------------------------2-----------------------
A|-4--------0---------------------2-----------------------
E|--------------------0-----------0-----------------------




Here are the lyrics:
(if you want to play chords, i think its just an A and E back and forth)

Verse 1-
Stay with me awhile.
Well it may seem foolish, but I'm scared
My beloveds yelling "Crucify!"
And its as if no one ever cared.

Soldiers mock me with their songs.
They laugh because I'm naked and I'm weak
Well I don't know how much longer I can go on,
When every breath I take is just to weep.

Chorus 1-
And for a moment time stood still,
To listen to the King of the hill.
And all the angels just stood still.
To listen to the King of the hill.

Verse 2-
Well I could've had servants
And I could have ruled this world as their King.
And I could have had wealth beond measure.
(tab 2,
I could have had anything, but it wouldn't have meant anything

Not my will but Yours be done,
I had no agenda, only Your truth.
You were so proud to call me Son,
Now Father, I commit my soul to You.

Chours 2-
And for a moment time stood still,
To listen to the King of the hill.
And I can hear You whisper, stil;
Father, I'm the King of the hill,
(play ending)
Father, I'm the King of the hill

Thanks, if you have any questions or comments,
e-mail cuinheaven@alloymail.com
     
Добавлено: 19.08.2013
Вам также может быть интересно:
Другие материалы по этой песне:
  • Аккорды и текст

Страница создана 19.08.2013
http://primanota.ru/eli/king-of-the-hill-chords.htm
Привет, Гость.
Предлагаем пройти революционный курс по гитаре.
Подарок от PrimaNota.Ru, забирай!