PrimaNota.ru - самый крупный в мире бесплатный архив песенных текстов, аккордов, табулатур и нот


Eli Fara - Sonata - таба, видео

Регистрация Запомнить меня
Войти через:  Facebook Google Twitter Vk Yandex Mail.ru

Eli Fara - Sonata - таба, видео

Печатать
Просмотров: 67
E-0-0-0-0-1-0--0-0-0-5-0---------0----------0------------------------------------------------------|
B------------------------3-3-3-3---3--3-3-3---3--1-1-1-1-3-1--1-1-1-3-1--0-0-0-0-1-0--0-0-0-1-0----|
G-----------------------------------------------------------------------------------------------2--|
D--------------------------------------------------------------------------------------------------|
A--------------------------------------------------------------------------------------------------|
E--------------------------------------------------------------------------------------------------|

E-0-0-0-0-1-0--0-0-0-5-0---------0----------0------------------------------------------------------|
B------------------------3-3-3-3---3--3-3-3---3--1-1-1-1-3-1--1-1-1-3-1--0-0-0-0-1-0--0-0-0-1-0----|
G-----------------------------------------------------------------------------------------------2--|
D--------------------------------------------------------------------------------------------------|
A--------------------------------------------------------------------------------------------------|
E--------------------------------------------------------------------------------------------------|

E---------5-0-------5-3n1-0-0-0-0-1--0---------------------0-0-------------------------------------|
B-3-3-3-3-----3-3-3---------------------1-1-1-3-1--0-0-0-0-----3-1-0-------------------------------|
G---------------------------------------------------------------------2----------------------------|
D--------------------------------------------------------------------------------------------------|
A--------------------------------------------------------------------------------------------------|
E--------------------------------------------------------------------------------------------------|

For Other tabs contact me in Facebook: https://www.facebook.com/geritano.pengu
Добавлено: 03.01.2016
Другие материалы по этой песне:
  • Аккорды и текст

Страница создана 03.01.2016
http://primanota.ru/eli-fara/sonata-chords.htm
Привет, Гость.
Предлагаем пройти революционный курс по гитаре.
Подарок от PrimaNota.Ru, забирай!